Oops, an error
Loading. Please wait.

Alone Together Tab

version 3
version 3

Whole song

Interactive

26,401 views 54 this week
3 commentsread comments
1 2 3 4 5
accurate
x 11
add to favorites
launch autoscroll
font size
0
reset
how to read this tab
guitar tuner
Tab Pro tools
  • play this tab
  • loop segment
  • change instrument
  • show fretboard
  • metronome
×
Best way to learn
"Alone Together"
Autoscroll
slow
fast
+/-
esc
set tempo
stop
Contributor
Difficulty
novice
[tab]

-------------------------------------------------------------------------------
                             Alone, Together - The Strokes
-------------------------------------------------------------------------------
Tabbed by: SheenZula
Email: enjoi_your_nikes@hotmail.com

Tuning: Standard

I didnt play it all by ear the first time but im just putting this tab together
with the parts that i think sound the best.
Sorry if it sounds like a ripoff of other peoples tabs im just trying to bring
all the best parts to this one. I corrected 
some parts as well.

Intro - Nick
e|-------------------------------------------------------------------------|Twice
B|-------------------------------------------------------------------------|
G|----------5----------------------5---------------------------------------| 
D|-------------7----------------------7------------------------------------|  
A|----0-0---------7-7-5-7----0-0---------7-7-5-7---------------------------| 
E|-------------------------------------------------------------------------| 


Verse - Albert
e|----7-7-7-7-7-7-7-7--5-5-5-5-5-5-5-5-5-5-5-5-5-5-5-5---------------------|
B|----8-8-8-8-8-8-8-8--6-6-6-6-6-6-6-6-6-6-6-6-6-6-6-6---------------------|
G|----7-7-7-7-7-7-7-7--5-5-5-5-5-5-5-5-5-5-5-5-5-5-5-5---------------------|
D|-------------------------------------------------------------------------|
A|-------------------------------------------------------------------------|
E|-------------------------------------------------------------------------|
      No    choice     now           It's   too    late
  
e|-------------------------------------------------------------------------|
B|-------------------------------------------------------------------------|
G|----------5----------------------5---------------------------------------|
D|-------------7----------------------7------------------------------------|
A|----0-0---------7-7-5-7----0-0---------7-7-5-7---------------------------|
E|-------------------------------------------------------------------------|
    

e|----7-7-7-7-7-7-7-7--5-5-5-5-5-5-5-5-5-5-5-5-5-5-5-5---------------------|
B|----8-8-8-8-8-8-8-8--6-6-6-6-6-6-6-6-6-6-6-6-6-6-6-6---------------------|
G|----7-7-7-7-7-7-7-7--5-5-5-5-5-5-5-5-5-5-5-5-5-5-5-5---------------------|
D|-------------------------------------------------------------------------|
A|-------------------------------------------------------------------------|
E|-------------------------------------------------------------------------|
      Let   him        go            He     gave    up           

e|-------------------------------------------------------------------------|Twice
B|-------------------------------------------------------------------------|
G|----------5----------------------5---------------------------------------|
D|-------------7----------------------7------------------------------------|
A|----0-0---------7-7-5-7----0-0---------7-7-5-7---------------------------|
E|-------------------------------------------------------------------------|
                        I    gave up 

e|----7-7-7-7-7-7-7-7--7-7-7-7-7-7-7-7--5-5-5-5-5-5-5-5-5-5-5-5-5-5-5-5----|
B|----8-8-8-8-8-8-8-8--8-8-8-8-8-8-8-8--6-6-6-6-6-6-6-6-6-6-6-6-6-6-6-6----|
G|----7-7-7-7-7-7-7-7--7-7-7-7-7-7-7-7--5-5-5-5-5-5-5-5-5-5-5-5-5-5-5-5----|
D|-------------------------------------------------------------------------|
A|-------------------------------------------------------------------------|
E|-------------------------------------------------------------------------|
      Lisa        said take   time for  me


e|----5-5-5-5-5-5-5-5-5-5-5-5-5-5-5-5--------------------------------------|
B|----6-6-6-6-6-6-6-6-6-6-6-6-6-6-6-6--------------------------------------|
G|----5-5-5-5-5-5-5-5-5-5-5-5-5-5-5-5--------------------------------------|
D|-------------------------------------------------------------------------|
A|-------------------------------------------------------------------------|
E|-------------------------------------------------------------------------|
      Dropping    him down        TO HIS

e|-------------------------------------------------------------------------|
B|-------------------------------------------------------------------------|
G|----5-----5-----5-5-5------5-----5-----5-5-5-----------------------------|
D|----7-----7-----7-7-7------7-----7-----7-7-7-----------------------------|
A|-------------------------------------------------------------------------|
E|-------------------------------------------------------------------------|
 |                                                                         |
 |                                                                         |
e|-------------------------------------------------------------------------|Twice
B|-------------------------------------------------------------------------|
G|----------5----------------------5---------------------------------------|
D|-------------7----------------------7------------------------------------|
A|----0-0---------7-7-5-7----0-0---------7-7-5-7---------------------------| 
E|-------------------------------------------------------------------------|
      KNEES!             Oh  chest down


e|-------------------------------------------------------------------------| Four times
B|-------------------------------------------------------------------------|
G|----5-5-5-5-5-5-5-5-5-5-5-5-5-5-5-5-4-4-4-4-4-4-4-4-4-4-4-4-4-4-4-4------|
D|----7-7-7-7-7-7-7-7-7-7-7-7-7-7-7-7-4-4-4-4-4-4-4-4-4-4-4-4-4-4-4-4------|
A|-------------------------------------------------------------------------|
E|-------------------------------------------------------------------------|
 |                                                                         |
 |                                                                         |
e|-------------------------------------------------------------------------|
B|-------------------------------------------------------------------------|
G|-------------------------------------------------------------------------| 
D|----7---7---9-----------------------9---9---12---------------------------|
A|----------------10-------(10)--(10)-------------9------------------------|
E|-------------------------------------------------------------------------|
      Take me away see I've got to explain Things they have changed in 
     such a permanent way Life seems unreal Can we go back to your place You
    drink too much Makes me drink just the same


e|-------------------------------------------------------------------------|Twice
B|-------------------------------------------------------------------------|
G|----------5----------------------5---------------------------------------|
D|-------------7----------------------7------------------------------------|
A|----0-0---------7-7-5-7----0-0---------7-7-5-7---------------------------|
E|-------------------------------------------------------------------------|


e|----7-7-7-7-7-7-7-7--5-5-5-5-5-5-5-5-5-5-5-5-5-5-5-5---------------------|
B|----8-8-8-8-8-8-8-8--6-6-6-6-6-6-6-6-6-6-6-6-6-6-6-6---------------------|
G|----7-7-7-7-7-7-7-7--5-5-5-5-5-5-5-5-5-5-5-5-5-5-5-5---------------------|
D|-------------------------------------------------------------------------|
A|-------------------------------------------------------------------------|
E|-------------------------------------------------------------------------|
      People           tried           Felt   so     right


e|-------------------------------------------------------------------------|
B|-------------------------------------------------------------------------|
G|----------5----------------------5---------------------------------------|
D|-------------7----------------------7------------------------------------|
A|----0-0---------7-7-5-7----0-0---------7-7-5-7---------------------------|
E|-------------------------------------------------------------------------|

e|----7-7-7-7-7-7-7-7--7-7-7-7-7-7-7-7--5-5-5-5-5-5-5-5-5-5-5-5-5-5-5-5----|
B|----8-8-8-8-8-8-8-8--8-8-8-8-8-8-8-8--6-6-6-6-6-6-6-6-6-6-6-6-6-6-6-6----|
G|----7-7-7-7-7-7-7-7--7-7-7-7-7-7-7-7--5-5-5-5-5-5-5-5-5-5-5-5-5-5-5-5----|
D|-------------------------------------------------------------------------|
A|-------------------------------------------------------------------------|
E|-------------------------------------------------------------------------|
      Giving      themselves  good ad - vice          

e|----5-5-5-5-5-5-5-5-5-5-5-5-5-5-5-5--------------------------------------|
B|----6-6-6-6-6-6-6-6-6-6-6-6-6-6-6-6--------------------------------------|
G|----5-5-5-5-5-5-5-5-5-5-5-5-5-5-5-5--------------------------------------|
D|-------------------------------------------------------------------------|
A|-------------------------------------------------------------------------|
E|-------------------------------------------------------------------------|
      Look - in down  sometimes  felt nice 

                                                                       
e|-------------------------------------------------------------------------|Two times
B|-------------------------------------------------------------------------|
G|----5-----5-----5-5-5------5-----5-----5-5-5-----------------------------|
D|----7-----7-----7-7-7------7-----7-----7-7-7-----------------------------|
A|-------------------------------------------------------------------------|
E|-------------------------------------------------------------------------|
 |                                                                         |
 |                                                                         |
e|-------------------------------------------------------------------------|
B|-------------------------------------------------------------------------|
G|----------5----------------------5---------------------------------------|Palm mute
D|-------------7----------------------7------------------------------------|
A|----0-0---------7-7-5-7----0-0---------7-7-5-7---------------------------| 
E|-------------------------------------------------------------------------|

  On Nick's third time,
e|----------------------------2-2/----5-5-5/8-8-8-8-8----------------------|
B|----------------------------2-2/----5-5-5/7-7-7-7-7----------------------|
G|----------5-----------------2-2/----5-5-5--------------------------------|
D|-------------7-----------------------------------------------------------|
A|----0-0---------7-7------------------------------------------------------|
E|-------------------------------------------------------------------------|



e|----5-5-5-5-5-5-5-5-5-5-5-5-5-5-5-5-5-5-5-5-5-5-5-5-5-5-5-5-5-5-5-5------|Twice
B|----5-5-5-5-5-5-5-5-7-7-7-7-7-7-7-7-5-5-5-5-5-5-5-5-7-7-7-7-7-7-7-7------|
G|----5-5-5-5-5-5-5-5-7-7-7-7-7-7-7-7-5-5-5-5-5-5-5-5-7-7-7-7-7-7-7-7------|
D|----7-7-7-7-7-7-7-7-7-7-7-7-7-7-7-7-7-7-7-7-7-7-7-7-7-7-7-7-7-7-7-7------|
A|----7-7-7-7-7-7-7-7-5-5-5-5-5-5-5-5-7-7-7-7-7-7-7-7-5-5-5-5-5-5-5-5------|
E|----5-5-5-5-5-5-5-5-5-5-5-5-5-5-5-5-5-5-5-5-5-5-5-5-5-5-5-5-5-5-5-5------|
 |                                                                         |
 |                                                                         |
e|-------------------------------------------------------------------------|
B|-------------------------------------------------------------------------|
G|----5-5-5-5-5-5-5-5-5-5-5-5-5-5-5-5-4-4-4-4-4-4-4-4-4-4-4-4-4-4-4-4------|
D|----7-7-7-7-7-7-7-7-7-7-7-7-7-7-7-7-4-4-4-4-4-4-4-4-4-4-4-4-4-4-4-4------|
A|-------------------------------------------------------------------------|
E|-------------------------------------------------------------------------|
      He knows it's justified to kill to survive. He then in dollars makes
      more dead than alive. Let's suck more blood, let's run three hours a day.
      The world is over but I don't care cause



e|-------------------------------------------------------------------------|
B|-------------------------------------------------------------------------|
G|----5-5-5-5-5-5-5-5-5-5-5-5-5-5-5-5-4-4-4-4-4-4-4-4-4-4-4-4-4-4-4-4------|
D|----7-7-7-7-7-7-7-7-7-7-7-7-7-7-7-7-4-4-4-4-4-4-4-4-4-4-4-4-4-4-4-4------|
A|-------------------------------------------------------------------------|
E|-------------------------------------------------------------------------|
 |                                                                         |
 |                                                                         |
e|-------------------------------------------------------------------------|
B|-------------------------------------------------------------------------|
G|-------------------------------------------------------------------------| 
D|----7---7---9-----------------------9---9---12---------------------------|
A|----------------10-------(10)--(10)-------------9------------------------|
E|-------------------------------------------------------------------------|
      I  am with you        Now I've got to explain. Things they have changed 
   in such a permanent way. Life seems unreal. Can we go back to your place? You
    drink too much. Makes me drink just the same.


e|----2/----5-5-5-5-8-8-8-8-7-7-7-7-10-10-10-10----------------------------|
B|----2/----5-5-5-5-8-8-8-8-7-7-7-7-10-10-10-10----------------------------|
G|----2/----5-5-5-5-9-9-9-9-7-7-7-7-11-11-11-11----------------------------|
D|-------------------------------------------------------------------------|
A|-------------------------------------------------------------------------|
E|-------------------------------------------------------------------------|

e|----------5-5-5-5-8-8-8-8-7-7-7-7--8---8---------------------------------|
B|----------5-5-5-5-8-8-8-8-7-7-7-7----7---0-------------------------------|
G|----------5-5-5-5-9-9-9-9-7-7-7-7----------------------------------------|
D|-------------------------------------------------------------------------|
A|-------------------------------------------------------------------------|
E|-------------------------------------------------------------------------|

e|----5-5-5-5-5-5-5-5-5-5-5-5-5-5-5-5-5-5-5-5-5-5-5-5-5-5-5-5-5-5-5-5------|Twice
B|----5-5-5-5-5-5-5-5-7-7-7-7-7-7-7-7-5-5-5-5-5-5-5-5-7-7-7-7-7-7-7-7------|
G|----5-5-5-5-5-5-5-5-7-7-7-7-7-7-7-7-5-5-5-5-5-5-5-5-7-7-7-7-7-7-7-7------|
D|----7-7-7-7-7-7-7-7-7-7-7-7-7-7-7-7-7-7-7-7-7-7-7-7-7-7-7-7-7-7-7-7------|
A|----7-7-7-7-7-7-7-7-5-5-5-5-5-5-5-5-7-7-7-7-7-7-7-7-5-5-5-5-5-5-5-5------|
E|----5-5-5-5-5-5-5-5-5-5-5-5-5-5-5-5-5-5-5-5-5-5-5-5-5-5-5-5-5-5-5-5------|
 |                                                                         |
e|------------------------------------------------------5h8-5h8-5h8-5h8-5--| Nick Valensi dance;
B|----5h8-5h8-5h8-5h8-5-------------------5h8-5h8-5h8-5--------------------| optional
G|----------------------5h7-5h7-5h7-5h7-5----------------------------------|
D|-------------------------------------------------------------------------|
A|-------------------------------------------------------------------------|
E|-------------------------------------------------------------------------|

                                                                                       
e|----5-5-5-5-5-5-5-5-5-5-5-5-5-5-5-5-5-5-5-5-5-5-5-5-5-5-5-5-5-5-5-5------|= 
B|----5-5-5-5-5-5-5-5-7-7-7-7-7-7-7-7-5-5-5-5-5-5-5-5-7-7-7-7-7-7-7-7------| |
G|----5-5-5-5-5-5-5-5-7-7-7-7-7-7-7-7-5-5-5-5-5-5-5-5-7-7-7-7-7-7-7-7------| |Twice
D|----7-7-7-7-7-7-7-7-7-7-7-7-7-7-7-7-7-7-7-7-7-7-7-7-7-7-7-7-7-7-7-7------| |
A|----7-7-7-7-7-7-7-7-5-5-5-5-5-5-5-5-7-7-7-7-7-7-7-7-5-5-5-5-5-5-5-5------| |
E|----5-5-5-5-5-5-5-5-5-5-5-5-5-5-5-5-5-5-5-5-5-5-5-5-5-5-5-5-5-5-5-5------|=
 |                                                                         |
e|-5-5-5-5-8-8-8-8-7-7-7-7-10-10-10-10-5-5-5-5-8-8-8-8-7-7-7-7-10-10-10-10-|=
B|-5-5-5-5-8-8-8-8-7-7-7-7-10-10-10-10-5-5-5-5-8-8-8-8-7-7-7-7-10-10-10-10-| |
G|-5-5-5-5-9-9-9-9-7-7-7-7-11-11-11-11-5-5-5-5-9-9-9-9-7-7-7-7-11-11-11-11-| |Once
D|-------------------------------------------------------------------------| |
A|-------------------------------------------------------------------------| |
E|-------------------------------------------------------------------------|=
     The first time, it happened too fast. The second time, 
     I thought it would last.
     

e|----5-5-5-5-8-8-8-8-10-10-10-10-12-12-12-12---15br--12-------------------|
B|----5-5-5-5-8-8-8-8-10-10-10-10-13-13-13-13------------15br--13----------|
G|----5-5-5-5-9-9-9-9-11-11-11-11-12-12-12-12------------------------------|
D|-------------------------------------------------------------------------|
A|-------------------------------------------------------------------------|
E|-------------------------------------------------------------------------|
     We all like it a little different.

e|-------------------------------------------------------------------------|
B|-------------------------------------------------------------------------|
G|----14-13-12-------------------------------------------------------------|
D|-------------14-13-12-10-------------------------------------------------|
A|-------------------------------------------------------------------------|
E|-------------------------------------------------------------------------|

e|-------------------------------------------------------------------------|
B|-------------------------------------------------------------------------|
G|----------5----------------------5--------------5~~----------------------|
D|-------------7----------------------7-----------7~~----------------------|
A|----0-0---------7-7-5-7----0-0---------7-7-5-7--0~~----------------------|
E|-------------------------------------------------------------------------|
 |                                                                         |
e|------------------------------------------------5~~----------------------|High E may not be
B|------------------------------------------------5~~----------------------| included but oh well,
G|------------------------------------------------5~~----------------------|play it if you want.
D|------------------------------------------------7~~----------------------|
A|------------------------------------------------0~~----------------------|
E|-------------------------------------------------------------------------|

This is my first official tab of my "career" i guess.
I'll add Nikolai's part in later.
Check this song out on the "Live At T In The Park 2004" video, It's slowed down
but it's a really good video.[/tab]
comments
print report bad tab
3 comments total.
0 reply
steezy_e wrote on May 7 2010, 10:44 pm

this is the best tab for this song in my opinion. EXCEPT for the solo. the 4th chord on the "pre-solo" is on the g & b strings only. the 11th & 13th frets respectively

0 reply
matteh wrote on March 23 2012, 10:06 pm

Better than the other tabs for this song, for sure. Not sure why it only had 3 stars.

Voted it 5.

0 reply
pabscara wrote on January 31 2014, 10:11 pm

Hi! I think that the intro is like this:

e|-----------------------------------------|
B|-----------------------------------------|
G|------5-------------------5--------------|
D|---------7-------------------7------5-7--| x2
A|--0-0-------7-7-5-7----0-0------7-7------|
E|-----------------------------------------|

It changes at the last part...

That's all, thanks for the tab!

I want to post or [tab]
guest
You may want to rate the tab now too:
select rating
Please do not post tabs as comments. Select "correction" instead!