Oops, an error
Loading. Please wait.

Automatic Stop Bass Tab

version 2
version 2

Whole song

1,725 views 9 this week
no commentswrite comment
1 2 3 4 5
please rate
add to favorites
launch autoscroll
font size
0
reset
guitar tuner
Tab Pro tools
  • play this tab
  • loop segment
  • change instrument
  • show fretboard
  • metronome
×
Best way to learn
"Automatic Stop"
Autoscroll
slow
fast
+/-
esc
set tempo
stop
Contributor
G|-------------------------------------------|
D|-------------------------------------------|
A|-99999999-6666666----------888-------------|
E|------------------99999999-----999-666-----| x2

G|-------------------------------------------|
D|-------------------------------------------|
A|--------------------------2222222-44444444-|
E|-44444444-2222222-4444444------------------|


G|-------------------------------------------|
D|-------------------------------------------|
A|-99999999-6666666----------888-------------|
E|------------------99999999-----999-666-----|


G|-------------------------------------------|
D|-------------------------------------------|
A|-99999999-6666666--------------------------|
E|------------------9999999999999999---------| 

G|-------------------------------------------|
D|4-------3-6--------------------------------|
A|--6---4-----6-----6-------------2(x15)-----|
E|----6---------6-2---6--2-4(x15)------------|x2

Break:

G|-------------------------------------------|
D|-------------------------------------------|
A|-99999999-6666666----------888-------------|
E|------------------99999999-----999-666-----| 

G|-------------------------------------------|
D|-------------------------------------------|
A|-99999999-6666666--------------------------|
E|------------------9999999999999999---------|


G|-------------------------------------------|
D|-------------------------------------------|
A|-99999999-6666666----------888-------------|
E|------------------99999999-----999-666-----| x2

G|--------------------------------------------------|
D|--------------------------------------------------|
A|--------------------------2222222-44444444-2222222|
E|-44444444-2222222-4444444-------------------------|

G|-------------------------------------------|
D|4-------3-6--------------------------------|
A|--6---4-----6-----6-------------2(x15)-----|
E|----6---------6-2---6--2-4(x15)------------|x2

The Strokes -  Automatic Stop | Tabbed by Bobbyroana (Acder1@live.co.uk)
comments
We did not receive enough feedback on this tab! Please rate:
print report bad tab
1 2 3 4 5
I want to post or [tab]
guest
You may want to rate the tab now too:
select rating
Please do not post tabs as comments. Select "correction" instead!