Oops, an error
Loading. Please wait.

Barely Legal Tab

version 2
version 2

Solo

Whole song

1,652 views 9 this week
2 commentsread comments
1 2 3 4 5
please rate
add to favorites
launch autoscroll
font size
0
reset
how to read this tab
guitar tuner
Tab Pro tools
  • play this tab
  • loop segment
  • change instrument
  • show fretboard
  • metronome
×
Best way to learn
"Barely Legal"
Autoscroll
slow
fast
+/-
esc
set tempo
stop
Contributor
j0r
Ok, this is my first tab EVER, since I only play the guitar for 9 months now, any criticism is welcome! 

Have fun!

e|----------------------------------------------------------------------------|
B|----------------------------------------------------------------------------|
G|--2-2-2-2-4-4-4-4-2-2-2-2-4-4-4-4-2-2-2-2-0-0-0-0-2-2-2-2-0-0-0-0-0---------|
D|-3-3-3-3-3-5-5-5-5-3-3-3-3-5-5-5-5-3-3-3-3-2-2-2-2-3-3-3-3-2-2-2-2----------|
A|----------------------------------------------------------------------------|
E|----------------------------------------------------------------------------|

e|----------------------------------------------------------------------------|
B|5/8-6-----------------------------------------------------------------------|
G|------7-6/7-10--------------------------------------------------------------|
D|---------------10-9-8------10-8-10-8-10-8-10-8------10-8-10-8-10-8-10-8-----|
A|----------------------9-11---------------------8-10---------------------8-10|
E|----------------------------------------------------------------------------|

e|----------------------------------------------------------------------------|
B|----------------------------------------------------------------------------|
G|----------------------------------------------------------------------------|
D|10-8-10-8-10-8-10-8------10-8-10-8-10-8-10-8------10-8-10-8-10-8-10-8-------|
A|--------------------8-10---------------------8-10---------------------------|
E|----------------------------------------------------------------------------|

e|----------------------------------------------------------------------------|
B|------------------------------------12-12-----------------------10-10-8-8---|
G|--------------12-12-11-11-9-9-11-11-------11-11-9-9-11-11-11-11-------------|
D|---8-10-8-------------------------------------------------------------------|
A|10--------10----------------------------------------------------------------|
E|----------------------------------------------------------------------------|

e|----------------------------------------------------------------------------|
B|7-7-8-8-10-10-10-9-9-8-8-7-7-6-6-5-5-4-4-3-3--------------------------------|
G|----------------------------------------------------------------------------|
D|----------------------------------------------------------------------------|
A|----------------------------------------------------------------------------|
E|----------------------------------------------------------------------------|
comments
We did not receive enough feedback on this tab! Please rate:
print report bad tab
1 2 3 4 5
2 comments total.
0 reply
baxissimo wrote on July 18 2014, 04:23 am

Lack of accuracy.

0 reply
baxissimo wrote on July 18 2014, 04:30 am

Probably better to play the first part on the A and D strings starting at frets 8 and 7. That way you're bouncing between fingering two strings for every note, which sounds more consistent than switching between open and fingered strings.

Also would be helpful to have some lyrics to know where the 2nd line and on fit in.

I want to post or [tab]
guest
You may want to rate the tab now too:
select rating
Please do not post tabs as comments. Select "correction" instead!