Oops, an error
Loading. Please wait.

Barely Legal Bass Tab

version 2
version 2

Whole song

3,304 views 9 this week
no commentswrite comment
1 2 3 4 5
accurate
x 1
add to favorites
launch autoscroll
font size
0
reset
guitar tuner
Tab Pro tools
  • play this tab
  • loop segment
  • change instrument
  • show fretboard
  • metronome
Autoscroll
slow
fast
+/-
esc
set tempo
stop
Difficulty
novice
Tabbed by Vitonxu any doubt, email-me vitonxu@hotmail.com

Riff 1 (Intro, Verse, Solo)
G|------------------------------|
D|------------------------------|
A|-----------3(32x)-------------|
E|--3(32x)----------------------|

Riff 2 (I just want to misbehave...)
G|------------------------------|
D|-----------------7(32x)-------|
A|--5(32x)-7(32x)---------------|
E|------------------------------|

Riff 1
Riff 3 (not sure if it is exactly that way)
G|---------------------------------------------|
D|-----------------7(16x)--9-7----------7------| 
A|--5(32x)-7(32x)--------------10-7-5-7--------|
E|---------------------------------------------|

Riff 4 (Chorus)
G|------------------------------|
D|-----------9(8x)-7(8x)--------|
A|--10(16x)---------------------|
E|------------------------------|

Riff 1 (until almost the end of the solo)

At the end of the solo play this
G|------------------------------|
D|-------7-9~----7~-------------|
A|--5-7-------------------------|
E|------------------------------|

Riff 1
Riff 3
Riff 4
Finish with this
G|----------------------------------------|
D|----------------------------------------|
A|-10(16x)-7(16x)-5(16x)-7(16x)-----------|
E|------------------------------3~--------|
comments
We did not receive enough feedback on this tab! Please rate:
print report bad tab
1 2 3 4 5
I want to post or [tab]
guest
You may want to rate the tab now too:
select rating
Please do not post tabs as comments. Select "correction" instead!