Oops, an error
Loading. Please wait.

Barely Legal Bass Tab

version 3
version 3

Whole song

2,550 views 1 this week
no commentswrite comment
1 2 3 4 5
please rate
add to favorites
launch autoscroll
font size
0
reset
guitar tuner
Tab Pro tools
  • play this tab
  • loop segment
  • change instrument
  • show fretboard
  • metronome
×
Best way to learn
"Barely Legal"
Autoscroll
slow
fast
+/-
esc
set tempo
stop
Contributor
Difficulty
novice
Tabbed by Vitonxu any doubt, email-me vitonxu@hotmail.com
This tab is a correction of the other version I've sent before...
I noted this a few days ago and it's better now
Enjoy ;)

Riff 1 (Intro, Verse, Solo)
G|------------------------------|
D|------------------------------|
A|-----------3(32x)-------------|
E|--3(32x)----------------------|

Riff 2 (I just want to misbehave...)
G|------------------------------|
D|-----------------7(32x)-------|
A|--5(32x)-7(32x)---------------|
E|------------------------------|

Riff 1
Riff 3 (not sure if it is exactly that way)
G|---------------------------------------------|
D|-----------------7(16x)-7-6-5-4-3-2-1--------| 
A|--5(32x)-7(32x)------------------------------|
E|---------------------------------------------|

Riff 4 (Chorus)
G|------------------------------|
D|-----------9(8x)-7(8x)--------|
A|--10(16x)---------------------|
E|------------------------------|

Riff 1 (until almost the end of the solo)

G|------------------------------|
D|-7-6-5-4-3-2-1----------------|
A|------------------------------|
E|------------------------------|

G|------------------------------|
D|-------7-9~----7~-------------|
A|--5-7-------------------------|
E|------------------------------|

Riff 1
Riff 3
Riff 4
Finish with this
G|----------------------------------------|x2
D|----------------------------------------|
A|-10(16x)-14(8x)-12(8x)------------------|
E|----------------------------------------|

End in G (A|-10-|)
comments
We did not receive enough feedback on this tab! Please rate:
print report bad tab
1 2 3 4 5
I want to post or [tab]
guest
You may want to rate the tab now too:
select rating
Please do not post tabs as comments. Select "correction" instead!