Oops, an error
Loading. Please wait.

Barely Legal Tab

version 3
version 3

Solo

Whole song

2,140 views 6 this week
no commentswrite comment
1 2 3 4 5
accurate
x 2
add to favorites
launch autoscroll
font size
0
reset
how to read this tab
guitar tuner
Tab Pro tools
  • play this tab
  • loop segment
  • change instrument
  • show fretboard
  • metronome
Autoscroll
slow
fast
+/-
esc
set tempo
stop
Song:  Barely Legal
Artist:  The Strokes
Album:  Is This It?
Tabbed By:  Stun_Silence

Guitar 1: Albert Hammond Jr.
Guitar 2: Nick Valensi

Intro:

Guitar 1

e: -----------------------------|
B: -----------------------------|
G: -----------------------------|
D: -----------------------------|  x4
A: --5--5--5--7-2--2--2--2-0-2--|
E: -----------------------------|

Guitar 2

e: --3-------8------|
B: --3-------8------|
G: --4-x32---9-x32--|
D: --5------10------|
A: --5------10------|
E: -----------------|


Verse 1:

Guitar 1

e: --3-3--------3-3--------8--8--------8--8--------|
B: --3-3--------3-3--------8--8--------8--8--------|
G: --4-4--------4-4--------9--9--------9--9--------|
D: --5-5--------5-5-------10-10-------10-10--------|
A: --5-5--------5-5-------10-10-------10-10--------|
E: --3-3--------3-3--------8--8--------8--8--------|

e: --3-3------------------------------|
B: --3-3------------------------------|
G: --4-4------------------------------|
D: --5-5-5-5-5-5-5-5-5-5-5-5-5-5-5-5--|  x2
A: --5-5-5-5-5-5-5-5-5-5-5-5-5-5-5-5--|
E: --3-3-3-3-3-3-3-3-3-3-3-3-3-3-3-3--|

e: ---8--8--------------------------------------------|
B: ---8--8--------------------------------------------|
G: ---9--9--------------------------------------------|
D: --10-10-10-10-10-10-10-10-10-10-10-10-10-10-10-10--|  x2
A: --10-10-10-10-10-10-10-10-10-10-10-10-10-10-10-10--|
E: ---8--8--8--8--8--8--8--8--8--8--8--8--8--8--8--8--|

Guitar 2

e: --3-------8------|
B: --3-------8------|
G: --4-x32---9-x32--|
D: --5------10------|  x2
A: --5------10------|
E: -----------------|


Solo:

Guitar 1

e: --3-------8------|
B: --3-------8------|
G: --4-x32---9-x32--|
D: --5------10------|
A: --5------10------|
E: -----------------|

Guitar 2

e: ------------------------------------|
B: ------------------------------------|
G: --2---2---2---2----4---4---4---4----|
D: ----3---3---3---3/---5---5---5---3--|  x2
A: ------------------------------------|
E: ------------------------------------|

e: ------------------------------------|
B: ------------------------------------|
G: --2---2---2---2---0---0---0---0-----|
D: ----3---3---3---3---2---2---2---2/--|  x2
A: ------------------------------------|
E: ------------------------------------|


Interlude:

Guitar 1

e: ---8-------8------|
B: ---8------10------|
G: ---9-x64---9-x32--|
D: --10------10------|
A: ------------------|
E: ------------------|

Guitar 1

e: ----------------|
B: ----------------|
G: --7------9------|
D: --7-x32--9-x64--|
A: --5------7------|
E: ----------------|


Pre-Chorus:

Guitar 1 & 2

e: --3----3-3---3----3-3---3----3-3---3----3-3-----|
B: --3----3-3---3----3-3---3----3-3---3----3-3-----|
G: --4----4-4---4----4-4---4----4-4---4----4-4-----|
D: --5----5-5---5----5-5---5----5-5---5----5-5-----|
A: --5----5-5---5----5-5---5----5-5---5----5-5-----|
E: ------------------------------------------------|


Chorus 1:

Guitar 1

e: --10-------|
B: --12-------|
G: --12-x128--|
D: --12-------|
A: --10-------|
E: --10-------|

Guitar 2

e: ---------------------------------------------------|
B: ---------------------------------------------------|
G: ---------------------------------------------------|
D: ---------------------------------------------------|  x3
A: --5---------------------7-7---------------------5--|
E: ------7-7---5-5---7-7---------7-7---5-5---7-7------|

e: ---------------------------------------------------|
B: ---------------------------------------------------|
G: ---------------------------------------------------|
D: ------------------------------------------------3--|
A: --5---------------------7-7------------------------|
E: ------7-7---5-5---7-7---------7-7---5-5---7-7------|


Verse 2:

Guitar 1

        |---------harmonics--------------|
e: --3-3-3-3-3-3-3-3-3-3-3-3-3-3-3-3-----|
B: --3-3---------------------------------|
G: --4-4---------------------------------|
D: --5-5---------------------------------|  x2
A: --5-5---------------------------------|
E: --3-3---------------------------------|

          |---------harmonics-------------|
e: ---8--8-8-8-8-8-8-8-8-8-8-8-8-8-8-8----|
B: ---8--8--------------------------------|
G: ---9--9--------------------------------|
D: --10-10--------------------------------| x2
A: --10-10--------------------------------|
E: ---8--8--------------------------------|

Guitar 2

e: --3-------8------|
B: --3-------8------|
G: --4-x32---9-x32--|
D: --5------10------|
A: --5------10------|
E: -----------------|


Chorus 2:

Guitar 1

e: --10-------|
B: --12-------|
G: --12-x128--|
D: --12-------|
A: --10-------|
E: --10-------|

Guitar 2

e: ---------------------------------------------------|
B: ---------------------------------------------------|
G: ---------------------------------------------------|
D: ---------------------------------------------------|  x2
A: --5---------------------7-7---------------------5--|
E: ------7-7---5-5---7-7---------7-7---5-5---7-7------|

e: ---------------------------------------------------------|
B: ---------------------------------------------------------|
G: ---------------------------------------------------------|
D: --(5-5-5-5-5-5-5-5)-x2--9-9-9-9-9-9-9-9-7-7-7-7-7-7-7-7--|  x2
A: ---------------------------------------------------------|
E: ---------------------------------------------------------|


Outro:

Guitar 1 & 2

e: --3--------|
B: --3--------|
G: --4--------|
D: --5--------|
A: --5--------|
E: --3--------|
__________________________________________________________

Intro
Verse 1
Solo
Verse 1
Interlude
Pre-chorus
Chorus 1
Solo
Verse 2 (x2)
Interlude
Chorus 2
Outro
comments
We did not receive enough feedback on this tab! Please rate:
print report bad tab
1 2 3 4 5
I want to post or [tab]
guest
You may want to rate the tab now too:
select rating
Please do not post tabs as comments. Select "correction" instead!