Oops, an error
Loading. Please wait.

Between Love And Hate Tab

version 2
version 2

Whole song

Interactive

21,863 views 12 this week
1 commentread comment
1 2 3 4 5
excellent!
x 10
add to favorites
launch autoscroll
font size
0
reset
how to read this tab
guitar tuner
Tab Pro tools
  • play this tab
  • loop segment
  • change instrument
  • show fretboard
  • metronome
×
Best way to learn
"Between Love And Hate"
Autoscroll
slow
fast
+/-
esc
set tempo
stop
Contributor
Difficulty
intermediate
--------------------------------------------------------------------------------|
                 BETWEEN LOVE & HATE - The Strokes------------------------------|
Tabbed by: Chris R From Azilda
Email:

Tuning:

INTRO*

Nick Valensi Plays
e|-----5-------5-------5--------5--------5-------5-------5--------5---------|
B|---5---5---5---5---5---5---5----5----5---5---5---5---5---5---5----5-------|
G|-7-------7-------7-------7---------6-------6-------4-------4--------------|
D|--------------------------------------------------------------------------|
A|--------------------------------------------------------------------------|
E|--------------------------------------------------------------------------|

e|-----2-------2--------2-------2-------4-------4--------4-------4----------|
B|---3---3---3---3----3---3---3---3---5---5---5---5----5---5---5---5--------|
G|-4-------4-------4--------4-------6-------6--------4-------4--------------|
D|--------------------------------------------------------------------------|
A|--------------------------------------------------------------------------|
E|--------------------------------------------------------------------------|

VERSE*

Nick Valensi Plays
e|-----5-------5-------5--------5--------5-------5-------5--------5---------|
B|---5---5---5---5---5---5---5----5----5---5---5---5---5---5---5----5-------|
G|-7-------7-------7-------7---------6-------6-------4-------4--------------|
D|--------------------------------------------------------------------------|
A|--------------------------------------------------------------------------|
E|--------------------------------------------------------------------------|

e|-----2-------2--------2-------2-------4-------4--------4-------4----------|
B|---3---3---3---3----3---3---3---3---5---5---5---5----5---5---5---5--------|
G|-4-------4-------4--------4-------6-------6--------4-------4--------------|
D|--------------------------------------------------------------------------|
A|--------------------------------------------------------------------------|
E|--------------------------------------------------------------------------|

Albert Hammond Jr Plays(Palm Muted)
e|--------------------------------------------------------------------------|
B|--------------------------------------------------------------------------|
G|--------------------------------------------------------------------------|
D|--------------------------------------------------------------------------|
A|--------------------------------------------------------------------------|
E|55-55-55-55-55-55-55-55-55-55-99-99-99-99-99-77-77-77-77-77-1010-1010-----|

e|--------------------------------------------------------------------------|
B|--------------------------------------------------------------------------|
G|--------------------------------------------------------------------------|
D|--------------------------------------------------------------------------|
A|--------------------------------------------------------------------------|
E|-1010-1010-1010-1010-1010-1010-1010-1010-99-99-99-99-99-77-77-77-77-77----|

CHORUS*(.."never needed anybody")

Nick Valensi Plays
e|-5-------/10--------------------------------------------------------------|
B|-5-------/10--------------------------------------------------------------|
G|-6--x16--/11--x16---------------------------------------------------------|
D|-7-------/12--------------------------------------------------------------|
A|--------------------------------------------------------------------------|
E|--------------------------------------------------------------------------|
Albert Hammond Jr Plays
e|-9--------10--------------------------------------------------------------|
B|-10-x4----10-x4-----------------------------------------------------------|
G|-9--------11--------------------------------------------------------------|
D|--------------------------------------------------------------------------|
A|--------------------------------------------------------------------------|
E|--------------------------------------------------------------------------|

CHORUS Part2*

Nick Valensi Plays
e|----------------------------------------------------------|
B|-10-----7-----10----9-----15-----10----7----5-------------|
G|--x-x3--x-x3---x-x2-x-x8---x-x3---x-x3-x-x2-x-x8----------|
D|--7-----4------7----6-----12------7----4----2-------------|
A|----------------------------------------------------------|
E|----------------------------------------------------------|

e|----------------------------------------------------------|
B|-10-----7-----10----9-----15-----10----7----9----7----5---|
G|--x-x3--x-x3---x-x2-x-x8---x-x3---x-x3-x-x2-x-x3-x-x3-x-x2|
D|--7-----4------7----6-----12------7----4----6----4----2---|
A|----------------------------------------------------------|
E|----------------------------------------------------------|

Albert Hammond Jr Plays
e|-10-10-10-10-12-12-12-12-12--12--12--12--12--12--12--12---|
B|---9--9--9--9--9--9--9--9--11--11--11--11--13--13--13--13-|
G|----------------------------------------------------------|x2
D|----------------------------------------------------------|
A|----------------------------------------------------------|
E|----------------------------------------------------------|

SOLO*

Nick Valensi Plays
e|------------5----------/9---9-/15----15\8---8-/13----13---12------|
B|----5---5----5-7-5---5-/8-8---/14-14---\7-7---/12-12------10-<16>-|
G|-5h6-5h6-5h6------5h6---------------------------------------------|
D|------------------------------------------------------------------|
A|------------------------------------------------------------------|
E|------------------------------------------------------------------|

e|----------------------------------------------------10----10--------|
B|-14--12--10------10-----10-----10-10-12-10------10--10h12-10--------|
G|-12--12--12-10h11--10h11--10h11------------10h11--------------------|
D|--------------------------------------------------------------------|
A|--------------------------------------------------------------------|
E|--------------------------------------------------------------------|

e|--------------------------------------------------------------------|
B|-10---------10-10-10-10-10/12--10--10--10---------------------------|
G|-10h11-11---13-11-13-11-11/13--11---9---7---------------------------|
D|-------12---12-12-12-12---------------------------------------------|
A|--------------------------------------------------------------------|
E|--------------------------------------------------------------------|

OUTRO*
Nick Valensi Plays
e|----0-|
B|----x-|
G|-9\-5-|
D|-x\-x-|
A|-7\-3-|
E|------|

Albert Hammond Jr Plays
e|------|
B|-\8---|
G|------|
D|------|
A|------|
E|------|

| /  slide up
| \  slide down
| h  hammer-on
| p  pull-off
| ~  vibrato
| +  harmonic
| x  Mute note
===============================================================================
comments
print report bad tab
1 comment total.
0 reply
the$trokesrock wrote on April 4 2007, 01:33 pm

almost perfect except in the beginning nick plays the 7 on the d string not the g and during the chorus Albert plays on the B and G string not the e and B but its a great tab keep up the good work

I want to post or [tab]
guest
You may want to rate the tab now too:
select rating
Please do not post tabs as comments. Select "correction" instead!