Oops, an error
Loading. Please wait.

Call Me Back Tab

version 2
version 2

Whole song

Interactive

6,844 views 3 this week
no commentswrite comment
1 2 3 4 5
please rate
add to favorites
launch autoscroll
font size
0
reset
how to read this tab
guitar tuner
Tab Pro tools
  • play this tab
  • loop segment
  • change instrument
  • show fretboard
  • metronome
×
Best way to learn
"Call Me Back"
Autoscroll
slow
fast
+/-
esc
set tempo
stop
Contributor
Difficulty
intermediate
Call me back (versión 2)


(The Strokes, from the album "Angles" 2011)


Hola a todos, a diferencia de la primera versión que envié de esta tab,
esta No necesita el CAPO.  Espero que les guste,dudas y comentarios escriban
stillmyguitar@hotmail.com , cuídense, bye atte. Iván


Hi all, unlike the first version I sent this tab,
it does not need the capo. Hope you like, write questions and comments
stillmyguitar@hotmail.com, take care, bye atte. Ivan


Intro



     Bm              E                A             F#m
e|-------------------------------------------------------------------|
B|---7-7----7---5----7--7---7--7--5---7--7---7--5---7--7---7-7-7-5---|
G|---7---7--7---7----7--7---7--7--7---7--7---7--7---7--7---7-7-7-7---|
D|-------------------6----6-----6-----7----7--------4----4-----------|
A|-------------------------------------------------------------------|
E|-------------------------------------------------------------------|


     Bm              E                A
  ----------------------------------------------------|
  ---7-7----7---5----7--7---7--7--5---7--7---7--5--5--|
  ---7---7--7---7----7--7---7--7--7---7--7---7--7--6--|
  -------------------6----6--6--------7----7-------4--|
  ----------------------------------------------------|
  ----------------------------------------------------|



     Bm              E                   A                F#m
e||-------------------------------------------------------------------------|
B||--7--7----7---5----7---7---7---7---5---7---7---7---5----7--7---7-7-7-5---|
G||o-7----7--7---7----7---7---7---7---7---7---7---7---7----7--7---7-7-7-7---|
D||o------------------6-----6---6---------7-----7----------4----4-----------|
A||-------------------------------------------------------------------------|
E||-------------------------------------------------------------------------|

 1. Wait time is the worst,              I can hardly     sit
 2. Wait time is to  blame             thought fame was a trip



     Bm              E                   A                F#m
e|------------------------------------------------------------------------|
B|--7--7----7---5----7---7---7---7---5---7---7---7---5----7--7---7-7-7-5--|
G|--7----7--7---7----7---7---7---7---7---7---7---7---7----7--7---7-7-7-7--|
D|-------------------6-----6---6---------7-----7----------4----4----------|
A|------------------------------------------------------------------------|
E|------------------------------------------------------------------------|

     No one has the  time               Someone is always late chch
     We all have the time               Someone is always feared



     Bm              E                   A                F#m
e|------------------------------------------------------------------------|
B|--7--7----7---5----7---7---7---7---5---7---7---7---5----7--7---7-7-7-5--|
G|--7----7--7---7----7---7---7---7---7---7---7---7---7----7--7---7-7-7-7--|
D|-------------------6-----6---6---------7-----7----------4----4----------|
A|------------------------------------------------------------------------|
E|------------------------------------------------------------------------|

 1. I   look   for   you             And you look for     me  who oh oh
 2. I   look   for   you             And you look         away    oh oh



     Bm              E                A
e|-----------------------------------------------------------|
B|---7--7----7--5----7--7---7---7--5--5--5--5---5--5---5--5--|
G|---7----7--7--7----7--7---7---7--7--6--6--6---6--6---6--6--|
D|-------------------6----6---6---------------4------4-------|
A|-----------------------------------------------------------|
E|-----------------------------------------------------------|

    oh       oh oh oh              oh oh



    G   D        A          G        D         A                 G

e|--5---5--------5---9--7---5--------5---------5------9-----7----5-|
B|--5------------5---5--5---5------------------5------5-----5----5-|
G|------7----------------------------7-----------------------------|
D|-----------------------------------------------------------------|
A|-----------------------------------------------------------------|
E|-----------------------------------------------------------------|

 1. I don’t know why I came down  I  hold your phone, don’t wake up
 2. ____________________________  _________________________________



    A
e|-----5------5------9--7---5------|--5---5---|-5---5---5--5---5---5--|
B|------------5------5--5---5------|------5---|---5---5---------------|
G|-----7---------------------------|--7-------|--------------7---7----|
D|---------------------------------|----------|-----------------------|
A|---------------------------------|----------|-----------------------|
E|---------------------------------|----------|-----------------------|
                                     1        2
 1. I  hear a voice, in the ground…

 2. ___________________________________________




e|-5-5--5--5--5--5--5--5--5--5--5--5--5-/------|
B|-5-5--5--5--5--5--5--5--5--5--5--5--5-/------|
G|---6--4--6--4--6--4--6--4--6--4--6--4-/------|
D|---------------------------------------------|
A|---------------------------------------------|
E|---------------------------------------------|

  2



    Gm

e|--9----9----9---8--9--11---9-----9----9----8----9---11----|
B|--9----9----9---9--9--6----9-----9----9----9----9---9-----|
G|----------------------------------------------------------|
D|----------------------------------------------------------|
A|----------------------------------------------------------|
E|----------------------------------------------------------|

 1. Tell me, don’t tell me, The hard part is telling me
 2. Waiting   up   is    so      much      fun      to
    eighteen      movies      make  out    party



    Dm                                          D             D

e|--9---9---9--8---8---8--|--9---9---9--8---8---8---||-9-9-8-8-8--|
B|--9---9---9--9---9---9--|--9---9---9--9---9---9---||-9-9-9-9----|
G|------------------------|------------------------o||------------|
D|------------------------|------------------------o||------------|
A|------------------------|-------------------------||---------9--|
E|------------------------|-------------------------||------------|


1. Something that you are not   likely to telling
2.   do      oooo,
  yeah             uuuu  ____________________________uu
comments
We did not receive enough feedback on this tab! Please rate:
print report bad tab
1 2 3 4 5
I want to post or [tab]
guest
You may want to rate the tab now too:
select rating
Please do not post tabs as comments. Select "correction" instead!