Oops, an error
Loading. Please wait.

Clear Skies Bass Tab

version 1
version 1

Whole song

Interactive

514 views 1 this week
no commentswrite comment
1 2 3 4 5
please rate
add to favorites
launch autoscroll
font size
0
reset
guitar tuner
Tab Pro tools
  • play this tab
  • loop segment
  • change instrument
  • show fretboard
  • metronome
Autoscroll
slow
fast
+/-
esc
set tempo
stop
Difficulty
intermediate
G|-----------------------------------------------------------------|
D|--------------------5--7(/)--------------------------------------|x1
A|------------------57------77--------------------2-5-------8-5----|
E|---7--5-7-5-7--57------------7/5---3-0-33---3-5-------3-5--------|


G|---------------------------------------------------------------------|
D|----------------55---------------------------------------------------|
A|---5-0-55-5---5----0-5-5---------------------------------------------|x3
E|------------3------------5-5-57-5-77--5------------------------------|

G|-----------------------------------------------|
D|-----------------------------------------------|x1
A|--55555555----------5555-----------------------|
E|-----------33333333-----5555-7/----------------|


G|------------------------------------------------------|
D|---------------------5--7(/)--------------------------|
A|-------------------57------77--------------------2-5--|x1
E|---7--5-7-5-7--5-7------------7/5---3-0-33---3-5------|


A little different on the second time of the solo

G|-------------------------------------------------------------|
D|--------------------5----------------------------------------|
A|-----------------57---7-7-75----------------2-5--------------|x1
E|---7--5-7-5-7--57-----------75--3-0-33--3-5------------------|



G|------------------------------------------------------|
D|---------------------5--7(/)--------------------------|x2
A|-------------------57------77--------------------2-5--|
E|---7--5-7-5-7--5-7------------7/5---3-0-33---3-5------|


G|---------------------------------------|
D|---------------------------------------|
A|--------8-5--------2-5------10-9-7-5---|
E|----3-5--------3-5---------------------|
comments
We did not receive enough feedback on this tab! Please rate:
print report bad tab
1 2 3 4 5
I want to post or [tab]
guest
You may want to rate the tab now too:
select rating
Please do not post tabs as comments. Select "correction" instead!