Oops, an error
Loading. Please wait.

Evening Sun Bass Tab

version 1
version 1

Whole song

1,191 views 3 this week
1 commentread comment
1 2 3 4 5
please rate
add to favorites
launch autoscroll
font size
0
reset
guitar tuner
Tab Pro tools
  • play this tab
  • loop segment
  • change instrument
  • show fretboard
  • metronome
×
Best way to learn
"Evening Sun"
Autoscroll
slow
fast
+/-
esc
set tempo
stop
Contributor
Band: the strokes 
Album: first impressions on earth
Song: evening sun

please rate

G|-------------------------99886666-|
D|----------------/9--/9------------| 
A|/7--/7--/9--/9--------------------| x2
E|----------------------------------|

G|-6666666666666666-----------------|
D|-----------------7777777777777777-| 
A|----------------------------------|
E|----------------------------------|

0:22 (11's and 10's not 1's and 0's)

G|-1111-11--11-1010-10--10------------------|
D|-----7---7-------7---7---7777777777777777-| 
A|------------------------------------------|
E|------------------------------------------|

G|-7777777-7777777---9--9--9-9--9---|
D|-----------------77--7--7-7--7----| 
A|----------------------------------|
E|----------------------------------|

G|------------------|
D|------------------| 
A|-7777777777777777-|
E|------------------|

0:41

G|-------------------------99886666-|
D|----------------/9--/9------------| 
A|/7--/7--/9--/9--------------------| x2
E|----------------------------------|

G|-6666666666666666-----------------|
D|-----------------7777777777777777-| 
A|----------------------------------|
E|----------------------------------|

1:05 (11's and 10's not 1's and 0's)

G|-1111-11--11-1010-10--10------------------|
D|-----7---7-------7---7---7777777777777777-| 
A|------------------------------------------|
E|------------------------------------------|

(13's and 14's not 1's, 3's and 4's)

G|-7777777-7777777-1313--13---13-1414--14---14-|
D|---------------------14---14-------14---14---| 
A|---------------------------------------------|
E|---------------------------------------------|

G|------------------|
D|------------------| 
A|-7777777777777777-|
E|------------------|

1:23

G|-----------------77777777---------|
D|----------------------------------| 
A|-7777777777777777--------33333333-| x4
E|----------------------------------|

1:54

G|-------------------------99886666-|
D|-----------------99999999---------| 
A|-7777777799999999-----------------| x3
E|----------------------------------|

G|-------------------------99886----|
D|-----------------99999999---------| 
A|-7777777799999999-----------------|
E|----------------------------------|

G|----------------------------------|
D|-----------------7777777777777777-| 
A|24~-------------------------------|
E|----------------------------------|

2:25 (11's and 10's not 1's and 0's)

G|-1111-11--11-1010-10--10------------------|
D|-----7---7-------7---7---7777777777777777-| 
A|------------------------------------------|
E|------------------------------------------|

(13's and 14's not 1's, 3's and 4's)

G|-7777777-7777777-1313--13---13-1414--14---14-|
D|---------------------14---14-------14---14---| 
A|---------------------------------------------|
E|---------------------------------------------|

G|------------------|
D|------------------| 
A|-7777777777777777-|
E|------------------|

2:44 (13's and 14's not 1's, 3's and 4's)

G|-7777777-7777777-1313--13---13-1414--14---14-|
D|---------------------14---14-------14---14---| 
A|---------------------------------------------|
E|---------------------------------------------|

G|----------------------------------|
D|----------------------------------| 
A|-7~-------------------------------|
E|----------------------------------|
comments
We did not receive enough feedback on this tab! Please rate:
print report bad tab
1 2 3 4 5
1 comment total.
0 reply
SPARTAN 101 wrote on February 6 2009, 02:05 am

Respect for trying but just way off. No bass in the first two verses, and the choruses are far more complicated. I made a tab myself for this song and hopefully it gets accepted after I submit it.

I want to post or [tab]
guest
You may want to rate the tab now too:
select rating
Please do not post tabs as comments. Select "correction" instead!