Oops, an error
Loading. Please wait.

Evening Sun Bass Tab

version 2
version 2

Whole song

1,874 views 3 this week
no commentswrite comment
1 2 3 4 5
accurate
x 4
add to favorites
launch autoscroll
font size
0
reset
guitar tuner
Tab Pro tools
  • play this tab
  • loop segment
  • change instrument
  • show fretboard
  • metronome
×
Best way to learn
"Evening Sun"
Autoscroll
slow
fast
+/-
esc
set tempo
stop
Contributor
-----------------------------------------------------------------------------
EVENING SUN – The Strokes
-----------------------------------------------------------------------------

Tabbed By : SPARTAN 101
e-mail: eligeek101@sbcglobal.net

Tuning: Standard

VERSE 1 (No Bass)

CHORUS

G ---------------------------------|
D ---------------------------------|
A -0-0-0-0-0-0-0-0-0-0-0-0-0-0-0-0-|
E ---------------------------------|

G ---------------------------------|
D -4-----4-----4---3-----3-----3---|
A ---5-----5-----5---5-----5-------|
E -----5-----5---------5-----5-----|

G ----------------------------------|
D ----------------------------------|
A -0-0-0-0-0-0-0-0-0-0-0-0-0-0-0-0--|
E ----------------------------------|

G ---------------------------------|
D ---------------------------------|
A -5-5-5-5-5-5-5-5-5-5-5-5-5-5-5-5-|
E ---------------------------------|

G ---------------------------------|
D -----2-----2-------2-----2-------|
A -0-0---0-0---0-0-0---0-0---0-0-0-|
E ---------------------------------|

G ---------------------------------|
D ---------------------------------|
A ---------------------------------|
E -0-0-0-0-0-0-0-0-0-0-0-0-0-0-0-0-|

VERSE 2 (No Bass)

Repeat CHORUS

BRIDGE

G ---------------------------------|
D -2-2-2-2-2-2-2-2-2-2-2-2-2-2-2-2-|
A ---------------------------------|
E ---------------------------------|
                                                   X4
G ---------------------------------|
D -0-0-0-0-0-0-0-0-----------------|
A -----------------3-3-3-3-3-3-3-3-|
E ---------------------------------|

VERSE 3

G ---------------------------------|
D -2-2-2-2-2-2-2-2-4-4-4-4-4-4-4-4-|
A ---------------------------------|
E ---------------------------------|
	                                           X3
G ---------------------------------|
D -----------------2-2-1-1---------|
A -2-2-2-2-2-2-2-2---------4-4-4-4-| < hit a fifth note and hold it
E ---------------------------------|      after the third time

FINAL CHORUS

G ---------------------------------|
D ---------------------------------|
A -0-0-0-0-0-0-0-0-0-0-0-0-0-0-0-0-|
E ---------------------------------|

G ---------------------------------|
D -4-----4-----4---3-----3-----3---|
A ---5-----5-----5---5-----5-------|
E -----5-----5---------5-----5-----|

G ----------------------------------|
D ----------------------------------|
A -0-0-0-0-0-0-0-0-0-0-0-0-0-0-0-0--|
E ----------------------------------|

G ---------------------------------|
D ---------------------------------|
A -5-5-5-5-5-5-5-5-5-5-5-5-5-5-5-5-|
E ---------------------------------|

G ---------------------------------|
D -----2-----2-------2-----2-------|
A -0-0---0-0---0-0-0---0-0---0-0-0-|
E ---------------------------------|

G ---------------------------------|
D ---------------------------------|
A ---------------------------------|
E -0-0-0-0-0-0-0-0-0-0-0-0-0-0-0-0-|

G ---------------------------------|
D ---------------------------------|
A -5-5-5-5-5-5-5-5-5-5-5-5-5-5-5-5-|
E ---------------------------------|

G ---------------------------------|
D -----2-----2-------2-----2-------|
A -0-0---0-0---0-0-0---0-0---0-0-0-|
E ---------------------------------|

G ---------------------------------|
D ---------------------------------|
A ---------------------------------|
E -0~~~~~~~~~~~~~~~~~~~------------|

| /   slide up
| ~   hold note
comments
print report bad tab
I want to post or [tab]
guest
You may want to rate the tab now too:
select rating
Please do not post tabs as comments. Select "correction" instead!