Oops, an error
Loading. Please wait.

Fear Of Sleep Bass Tab

version 1
version 1

Whole song

Interactive

2,724 views 3 this week
no commentswrite comment
1 2 3 4 5
accurate
x 7
add to favorites
launch autoscroll
font size
0
reset
guitar tuner
Tab Pro tools
  • play this tab
  • loop segment
  • change instrument
  • show fretboard
  • metronome
×
Best way to learn
"Fear Of Sleep"
Autoscroll
slow
fast
+/-
esc
set tempo
stop
Difficulty
novice
VERSE (0:07)
G|---------------------------------------------------------------|
D|---------------------------------------------------------------|
A|--6(x20)--------6(x16)--------6(x20)--------6(x16)-------8~----|
E|---------4(x16)--------6(x16)--------4(x16)--------6(x7)-------|

CHORUS (0:41)
        x2              x2                x2
G|---------------|------5---------|--5--------------|---------------------------5---5-|
D|------3-----5--|--------8---10--|----8------------|--6(x16)-------------6---6---6---|
A|--------6------|--6-8-----------|------6-------6--|---------------6---6---6---------|
E|--4-6-----6----|----------8-----|--------8-6-8----|---------8-6-8---8---------------|
VERSE 2 (1:15)
G|-----------------------------------------------------------|
D|--8(x4)-6(x4)-5(x4)---------------------6(x8)--------------|
A|--------------------8(x4)-6(x16)--------------6(x8)-3(x8)--|
E|---------------------------------6(x16)--------------------|

|---------------------------------------------------------|
|--------------------6(x8)--------------------------------|
|--------------6(x8)-------6(x8)-3(x8)-------------6(x8)—-|
|--6(x8)-4(x8)-------------------------6(x8)-4(x8)--------|

REREAT ALL AGAIN...STARTING IN 1:56

AFTER ALL, PLAY THIS

END (3:38)
G|------------------------------------|
D|--6(x8)-----------------------------|
A|--------6(x8)-3(x8)-------------6~--|
E|--------------------6(x8)-4(x6)-----|
comments
print report bad tab
I want to post or [tab]
guest
You may want to rate the tab now too:
select rating
Please do not post tabs as comments. Select "correction" instead!