Oops, an error
Loading. Please wait.

Games Bass Tab

version 1
version 1

Whole song

Interactive

5,988 views 9 this week
3 commentsread comments
1 2 3 4 5
excellent!
x 7
add to favorites
launch autoscroll
font size
0
reset
guitar tuner
Tab Pro tools
  • play this tab
  • loop segment
  • change instrument
  • show fretboard
  • metronome
×
Best way to learn
"Games"
Autoscroll
slow
fast
+/-
esc
set tempo
stop
Contributor
Difficulty
novice
Games-Song
Strokes-Band
Angles-Album
2011-Year
Nikolai-Bassist

Easiest with a pick, just like Nikolai. This also is my first tab. It sounds nearly spot on. 

    INTRO: 
Note: Pulse the notes
 
 |-------------------------------------------|
 |---3-3-3-3-3-------------------------------| x2
 |------------5-5-5-5-5-3-3-3-3-3--7-7-7-7-7-|
 |-------------------------------------------|
     VERSE:

 |-----------------------------|
 |---7-7--5-3-2----------------| x12  
 |-----------------------------|
 |-----------------------------|

For the last part, he hits the note on the 7th five more times.
 
     CHORUS:

 |-------------------------------------------|
 |---3-3-3-3-3-------------------------------| x5
 |------------5-5-5-5-5-3-3-3-3-3--7-7-7-7-7-|
 |-------------------------------------------|

     2ND VERSE: 
 
 |-----------------------------|
 |---7-7--5-3-2----------------| x12  
 |-----------------------------|
 |-----------------------------|
      
     CHORUS:

 |-------------------------------------------|
 |---3-3-3-3-3-------------------------------| x6
 |------------5-5-5-5-5-3-3-3-3-3--7-7-7-7-7-|
 |-------------------------------------------|

     BREAK:
     
      Silent for a few. Then this
     Note: You could play it on the high G string:

 |-----7-7-7-7-5-4--5-5-5-5-4-2--------------|
 |-------------------------------------------|
 |-------------------------------------------|
 |-------------------------------------------|
 
 
                    OR 
                  On the A string
            I think he plays it on the a on the record...

 |-------------------------------------------|
 |-------------------------------------------|
 |--5-5-5-5-3-2--3-3-3-3-2-0--0-2-3-2-0------| Just play this until the end.
 |-------------------------------------------|


  I know there is a little outro part, I just wasn't able to work it out.

             Thanks, please rate, and happy playing :D
comments
print report bad tab
3 comments total.
0 reply
spud1200 wrote on April 21 2011, 04:03 pm

Great tab. Although nikolai played it like this on conan last night.

E string:5 5 3 1 0

but yours sounds great. 5 star

0 reply
Hmizzle wrote on March 27 2014, 02:56 pm, edited at 02:58 pm

The last bit is like this I think: |----------------------------------------------| |--------------------------------5-3-3-3-3-3-2-0| |---------------------5-2-2-2-2-2--------------| |--5-5-5-5-4-2-2-2-2-2-0------------------------| Rest is really good though, nice job

0 reply
Hmizzle wrote on March 27 2014, 02:59 pm

The last bit is like this I think:

|-----------------------------------------------|
|--------------------------------5-3-3-3-3-3-2-0|
|---------------------5-2-2-2-2-2---------------|
|--5-5-5-5-4-2-2-2-2-2--------------------------|

Rest is really good though, nice job

Ignore last post this one's the right one.

I want to post or [tab]
guest
You may want to rate the tab now too:
select rating
Please do not post tabs as comments. Select "correction" instead!