Oops, an error
Loading. Please wait.

Games Bass Tab

version 2
version 2

Whole song

Interactive

731 views 1 this week
no commentswrite comment
1 2 3 4 5
please rate
add to favorites
launch autoscroll
font size
0
reset
guitar tuner
Tab Pro tools
  • play this tab
  • loop segment
  • change instrument
  • show fretboard
  • metronome
×
Best way to learn
"Games"
Autoscroll
slow
fast
+/-
esc
set tempo
stop
Contributor
Tabbed by: jaronthebassist
                                  Games                                     
                                                                 The Strokes
Bass

      S S S S S S S S S S S S S S S S    S S S S S S S S S S S S S S S S    
G||-----------------------------------|-----------------------------------||
D||*--3-3-3-3-3-3-3-3-----------------|------------------2-2-2-2-2-2-2-2-*||
A||*------------------5-5-5-5-5-5-5-5-|--3-3-3-3-3-3-3-3-----------------*||
E||-----------------------------------|-----------------------------------||


   S E  S E  S E  S E  Q     4x   S E  S E  S E  S E  Q     8x
-----------------------------||-----------------------------||
*---------------------------*||*--7----7----5----3----2----*||
*---------------------------*||*---------------------------*||
---5----5----3----1----0-----||-----------------------------||


   S S S S S S S S S S S S S S S S    S S S S S S S S S S S S S S S S  
-----------------------------------|----------------------------------|
*--3-3-3-3-3-3-3-3-3-3-3-3-3-3-3-3-|----------------------------------|
*----------------------------------|--5-5-5-5-5-5-5-5-5-5-5-5-5-5-5-5-|
-----------------------------------|----------------------------------|


  S S S S S S S S S S S S S S S S    S S S S S S S S S S S S S S S S    
----------------------------------|-----------------------------------||
----------------------------------|--2-2-2-2-2-2-2-2-2-2-2-2-2-2-2-2-*||
--3-3-3-3-3-3-3-3-3-3-3-3-3-3-3-3-|----------------------------------*||
----------------------------------|-----------------------------------||


   S S S S S S S S S S S S S S S S    S S S S S S S S S S S S S S S S  3x
-----------------------------------|-----------------------------------||
*--3-3-3-3-3-3-3-3-----------------|------------------2-2-2-2-2-2-2-2-*||
*------------------5-5-5-5-5-5-5-5-|--3-3-3-3-3-3-3-3-----------------*||
-----------------------------------|-----------------------------------||


  S S S S S S S S S S S S S S S S            S E  S S S S S S S S S Q     4x
----------------------------------|-----||--------------------------------||
--3-3-3-3-3-3-3-3-----------------|-----||*------------------------------*||
------------------5-5-5-5-5-5-5-5-|-----||*------------------------------*||
----------------------------------|-----||---5----5-----3-----1-----0-----||


   S E  S S S S S S S S S Q     8x   S S S S S S S S S S S S S S S S  
--------------------------------||-----------------------------------|
*--7----7-----5-----3-----2----*||*--3-3-3-3-3-3-3-3-3-3-3-3-3-3-3-3-|
*------------------------------*||*----------------------------------|
--------------------------------||-----------------------------------|


  S S S S S S S S S S S S S S S S    S S S S S S S S S S S S S S S S  
----------------------------------|----------------------------------|
----------------------------------|----------------------------------|
--5-5-5-5-5-5-5-5-5-5-5-5-5-5-5-5-|--3-3-3-3-3-3-3-3-3-3-3-3-3-3-3-3-|
----------------------------------|----------------------------------|


  S S S S S S S S S S S S S S S S       S S S S S S S S S S S S S S S S  
-----------------------------------||-----------------------------------|
--2-2-2-2-2-2-2-2-2-2-2-2-2-2-2-2-*||*--3-3-3-3-3-3-3-3-----------------|
----------------------------------*||*------------------5-5-5-5-5-5-5-5-|
-----------------------------------||-----------------------------------|


  S S S S S S S S S S S S S S S S  3x  S S S S S S S S S S S S S S S S  
-----------------------------------||----------------------------------|
------------------2-2-2-2-2-2-2-2-*||--3-3-3-3-3-3-3-3-----------------|
--3-3-3-3-3-3-3-3-----------------*||------------------5-5-5-5-5-5-5-5-|
-----------------------------------||----------------------------------|


       9x  E  E  E  E  Q    Q       W                 
|------||--7--7--7--7--5----4----|--L----------------|
|*----*||------------------------|-------------------|
|*----*||------------------------|-------------------|
|------||------------------------|-------------------|


  E  E  E  E  Q    Q       W                   E  E  E  E  Q    Q     
--5--5--5--5--4----2----|--L----------------|--7--7--7--7--5----4----|
------------------------|-------------------|------------------------|
------------------------|-------------------|------------------------|
------------------------|-------------------|------------------------|


  Q    Q    E   E  Q       E  E  E  E  Q    Q       W                 
--L----9----9--10--9----|--5--5--5--5--4----2----|--L----------------|
------------------------|------------------------|-------------------|
------------------------|------------------------|-------------------|
------------------------|------------------------|-------------------|


  E  E  E  E  Q    Q       W                   E  E  E  E  Q    Q     
--7--7--7--7--5----4----|--L----------------|--5--5--5--5--4----2----|
------------------------|-------------------|------------------------|
------------------------|-------------------|------------------------|
------------------------|-------------------|------------------------|


  W                   E  E  E  E  Q    Q       Q    Q    E   E  Q     
--L----------------|--7--7--7--7--5----4----|--L----9----9--10--9----|
-------------------|------------------------|------------------------|
-------------------|------------------------|------------------------|
-------------------|------------------------|------------------------|


  E  E  E  E  Q    Q       Q    E  E  E  E  Q       E  E  E  E  Q    Q     
--5--5--5--5--4----2----|--L----2--2--4--5--2----|------------------------|
------------------------|------------------------|------------------------|
------------------------|------------------------|--5--5--5--5--3----2----|
------------------------|------------------------|------------------------|


  W                   E  E  E  E  Q    Q       Q    E  E  E  E  Q     
-------------------|------------------------|------------------------|
-------------------|------------------------|------------------------|
--L----------------|--3--3--3--3--2----0----|--L----0--0--2--3--0----|
-------------------|------------------------|------------------------|


    E  E  E  E  Q    Q       Q    Q    E   E  Q     
|-------------------------|-------9----9--10--9----|
|*------------------------|------------------------|
|*--5--5--5--5--3----2----|--L---------------------|
|-------------------------|------------------------|


  E  E  E  E  Q    Q       Q    E  E  E  E  Q     3x
------------------------|-------------------------||
------------------------|------------------------*||
--3--3--3--3--2----0----|--L----0--0--2--3--0----*||
------------------------|-------------------------||


   E  E  E  E  E  E  E  E     E  E  E  E  E  E  E  E   
---------------------------|--------------------------|
*--------------------------|--------------------------|
*--5--5--5--5--5--5--5--5--|--5--5--5--5--5--5--5--5--|
---------------------------|--------------------------|


  E  E  E  E  E  E  E  E     E  E  E  E  E  E  E  E     
--------------------------|---------------------------||
--------------------------|--------------------------*||
--------------------------|--------------------------*||
--5--5--5--5--5--5--5--5--|--5--5--5--5--5--5--5--5---||


  E  E  E  E  E  E  E  E     E  E  E  E  E  E  E  E   
--------------------------|--------------------------|
--------------------------|--------------------------|
--5--5--5--5--5--5--5--5--|--5--5--5--5--5--5--5--5--|
--------------------------|--------------------------|


  E  E  E  E  E  Q    E     E  E  E  E  E  Q    E   
-----5--5--5--5--4-------|-------------------------|
----------------------7--|--L--7--7--7--7--5-------|
--L----------------------|----------------------7--|
-------------------------|-------------------------|


  E  E  E  E  E  Q    E     E  E  E  E  E  Q    E     W                  
-------------------------|-------------------------|-------------------||
-------------------------|-------------------------|-------------------||
--L--7--7--7--7--5----3--|--L--3--3--3--3--2----0--|--L----------------||
-------------------------|-------------------------|-------------------||




Duration Legend
---------------
W - whole
H - half
Q - quarter
E - 8th
S - 16th
T - 32nd
X - 64th
. - note dotted
|-n-|  - n-tuplets


Tablature Legend
----------------
L - tied note
x - dead note
g - grace note
(n) - ghost note
> - accentuded note
NH - natural harmonic
AH - artificial harmonic
TH - tapped harmonic
SH - semi harmonic
PH - pitch harmonic
h - hammer on
p - pull off
b - bend
br - bendRelease
pb - preBend
pbr - preBendRelease
brb - bendReleaseBend
\n/ - tremolo bar dip
\n - tremolo bar dive
-/n - tremolo bar Release up
/n\ - tremolo bar inverted dip
/n - tremolo bar return
-\n - tremolo bar Release down
S - shift slide
s - legato slide
/ -  slide into from below or out of upwards
\ -  slide into from above or out of downwards
~ - vibrato
W - wide vibrato
tr - trill
TP - tremolo picking
T - tapping
S - slap
P - pop
< - fade in
^ - brush up
v - brush down
comments
We did not receive enough feedback on this tab! Please rate:
print report bad tab
1 2 3 4 5
I want to post or [tab]
guest
You may want to rate the tab now too:
select rating
Please do not post tabs as comments. Select "correction" instead!