Oops, an error
Loading. Please wait.

Gratisfaction Tab

version 2
version 2

Whole song

Interactive

18,475 views 9 this week
1 commentread comment
1 2 3 4 5
excellent!
x 8
add to favorites
launch autoscroll
font size
0
reset
how to read this tab
guitar tuner
Tab Pro tools
  • play this tab
  • loop segment
  • change instrument
  • show fretboard
  • metronome
×
Best way to learn
"Gratisfaction"
Autoscroll
slow
fast
+/-
esc
set tempo
stop
Contributor
Difficulty
intermediate
-------------------------------------------------------------------------------
                             SONG NAME - Band Name
-----------------------------------------------------------------------------

Tuning:Standard E

This is what the rhythm guitarist is playing. I figure I'll tab this just so we 
can lay down the foundation for lead. :)

Verse 1

e|--8---8---x--7--7--x--5--5--x--3--3--------------|
B|--10--10--x--8--8--x--6--6--x--5--5///12--12--x--|
G|--10--10--x--9--9--x--7--7--x--5--5///12--12--x--|
D|--10--10--x--9--9--x--7--7--x--5--5///12--12--x--|
A|--8---8---x--7--7--x--5--5--x--3--3///10--10--x--|
E|-------------------------------------------------|
      F         Em       Dm       C       G

Verse 1 (cont.)

e|--------------------------------\\|
B|--12-12-12-x-12-12-12-x-12-12-12\\|
G|--12-12-12-x-12-12-12-x-12-12-12\\|
D|--12-12-12-x-12-12-12-x-10-10-10\\|
A|--10-10-10-x-10-10-10-x-12-12-12\\|
E|----------------------------------|
    G_____________________________

Verse 1 (cont.)

e|\\3--3--x--5--5--x--7--7///12--12--x--8---8--x--|
B|\\5--5--x--4--4--x--8--8///13--13--x--10--10-x--|
G|\\5--5--x--6--6--x--9--9///14--14--x--10--10-x--|
D|\\5--5--x--6--6--x--9--9///14--14--x--10--10-x--|
A|\\3--3--x--5--5--x--7--7///12--12--x--8---8--x--|
E|------------------------------------------------|
      C       Dm       Em      Am         F

Verse 1 (cont.)

e|--8--8--8--x-8--8--8--x--5--------|
B|--10-10-10-x-10-10-10-x--6---12---|
G|--10-10-10-x-10-10-10-x--7---12---|
D|--10-10-10-x-10-10-10-x--7---12---| 
A|--8--8--8--x-8--8--8--x--5---10---|
E|----------------------------------|
    F_________________     Dm   G

Verse 2

e|--8---8---x--7--7--x--5--5--x--3--3///-----------|
B|--10--10--x--8--8--x--6--6--x--5--5///12--12--x--|
G|--10--10--x--9--9--x--7--7--x--5--5///12--12--x--|
D|--10--10--x--9--9--x--7--7--x--5--5///12--12--x--|
A|--8---8---x--7--7--x--5--5--x--3--3///10--10--x--|
E|-------------------------------------------------|
      F         Em       Dm        C       G

Verse 2 (cont.)

e|------------------------------\\|
B|--12-13-12-x-12--12-x-12-13-12\\|
G|--12-12-12-x-12--12-x-12-12-12\\|
D|--12-12-12-x-12--12-x-12-12-12\\|
A|--12-10-10-x-10--10-x-10-10-10\\|
E|--------------------------------|
   G-Gsus4-G     G     G-Gsus4-G

Verse 2 (cont.)

e|\\3--3--x--5--5--x--7--7///12--12--x--8---8--x--|
B|\\5--5--x--4--4--x--8--8///13--13--x--10--10-x--|
G|\\5--5--x--6--6--x--9--9///14--14--x--10--10-x--|
D|\\5--5--x--6--6--x--9--9///14--14--x--10--10-x--|
A|\\3--3--x--5--5--x--7--7///12--12--x--8---8--x--|
E|------------------------------------------------|
     C        Dm       Em      Am         F

Verse 2 (cont.)

e|--8--8--8--x-8--8--8--x--5--------|
B|--10-10-10-x-10-10-10-x--6---12---|
G|--10-10-10-x-10-10-10-x--7---12---|
D|--10-10-10-x-10-10-10-x--7---12---|
A|--8--8--8--x-8--8--8--x--5---10---|
E|----------------------------------|
    F________________      Dm   G

Verse 2 (cont.)

e|--8---8---x--7--7--x--5--5--x--3--3--------------|
B|--10--10--x--8--8--x--6--6--x--5--5///12--12--x--|
G|--10--10--x--9--9--x--7--7--x--5--5///12--12--x--|
D|--10--10--x--9--9--x--7--7--x--5--5///12--12--x--|
A|--8---8---x--7--7--x--5--5--x--3--3///10--10--x--|
E|-------------------------------------------------|
      F          Em      Dm       C        G

Verse 2 (cont.)

e|----------------------------|
B|--12--12-x-12--12-x-12--12-x|
G|--12--12-x-12--12-x-12--12-x|
D|--12--12-x-12--12-x-12--12-x|
A|--10--10-x-10--10-x-10--10-x|
E|----------------------------|
    G______________________
  

Chorus (each chord once, they change quickly!)

e|--8-----5----------8-----3~-3-3--3-3--3-3--|
B|--10----6----12----10----5~-5-5--5-5--5-5//|
G|--10----7----12----10----5~-5-5--5-5--5-5//|
D|--10----7----12----10----5~-5-5--5-5--5-5//|
A|--8-----5----10----8-----3~-3-3--3-3--3-3//|
E|-------------------------------------------|
    F     Dm   G     F     C_______________
Chorus (pt. 2)

e|--------14---12----------5~-5-5--5-5--5-5--|
B|//17----15---13----12----6~-6-6--6-6--6-6--|
G|//17----16---14----12----7~-7-7--7-7--7-7--|
D|//17----16---14----12----7~-7-7--7-7--7-7--|
A|//15----14---12----10----5~-5-5--5-5--5-5--|
E|-------------------------------------------|
    C     Bm   Am    G     Dm______________
Chorus (pt. 3)

e|--8-----5----3------------------------------------|
B|--10----6----5-----13----12~-12-12--12-12--12-12--|
G|--10----7----5-----12----12~-12-12--12-12--12-12--|
D|--10----7----5-----12----12~-12-12--12-12--12-12--|
A|--8-----5----3-----10----10~-10-10--10-10--10-10--|
E|--------------------------------------------------|
    F     Dm   C    Gsus4  G______________________
Chorus (pt. 4)

             
e|--3----7--------5-5-5---------5----------|
B|--5----8--------6-5-6---------5----------|
G|--5----9--------7-5-7---------5----------|
D|--5----9--------7-5-7---------7-
                                        
comments
print report bad tab
1 comment total.
0 reply
The Wurm wrote on April 2 2011, 10:30 am

The end of my tab got cut off, but the last few chords there that seem to have the A and E string cut off are:

1: C (x35553)

2: Em (x79987)

3: Dm (x57765) >> D9sus4 (x55555) >> Dm (x57765)

4: Am (577555)

I want to post or [tab]
guest
You may want to rate the tab now too:
select rating
Please do not post tabs as comments. Select "correction" instead!