Oops, an error
Loading. Please wait.
We have an official Hard To Explain tab made by UG professional guitarists. Check out the tab »
×
177,070 views 165 this week
12 commentsread comments
1 2 3 4 5
x 63
add to favorites
×
Save as Personal and add changes to this tab that will be seen only by you. Learn more ›
×
You can save this tab as Personal to edit and correct it or add notes. All changes will be seen only by you. Learn more »
launch autoscroll
font size
0
reset
how to read this tab
guitar tuner
edit
Autoscroll
slow
fast
+/-
esc
set tempo
stop
Author
[Intro/Verse]

Guitar 1 (Albert)

E|------------------------------------------------------------------------------------------------|
B|8--8--8--8--8--8--8--8--7--7--7--7--7--7--7--7--8--8--8--8--8--8--8--8--8--8--8--8--8--8--8--8--|
G|7--7--7--7--7--7--7--7--7--7--7--7--7--7--7--7--7--7--7--7--7--7--7--7--7--7--7--7--7--7--7--7--|
D|9--9--9--9--9--9--9--9--9--9--9--9--9--9--9--9--7--7--7--7--7--7--7--7--7--7--7--7--7--7--7--7--|
A|------------------------------------------------------------------------------------------------|
E|------------------------------------------------------------------------------------------------|
  1  +  2  +  3  +  4  +  1  +  2  +  3  +  4  +  1  +  2  +  3  +  4  +  1  +  2  +  3  +  4  +   

  

E|------------------------------------------------------------------------------------------------|
B|------------------------------------------------------------------------7-----------5-----------|
G|5-----7-----7s9---------------------------------7-----5-----7s9---5-----------5-----------------|
D|------------------7-----------------5-----------------------------------------------------7-----|
A|------------------------------------------------------------------------------------------------|
E|------------------------------------------------------------------------------------------------|
  1  +  2  +  3  +  4  +  1  +  2  +  3  +  4  +  1  +  2  +  3  +  4  +  1  +  2  +  3  +  4  +  



E|------------------------------------------------------------------------------------------------|
B|------------------------7-----------5-----------1-----1-----1-----1-----0--------1--------------|
G|7-----5-----7s9---5-----------------------------0-----0-----2-----2-----2s4------2--------------|
D|------------------------------------------------------------------------------------------------|
A|------------------------------------------------------------------------------------------------|
E|------------------------------------------------------------------------------------------------|
  1  +  2  +  3  +  4  +  1  +  2  +  3  +  4  +  1  +  2  +  3  +  4  +  1  +  2  +  3  +  4  +  


                                                     *  *  *  *  *  *  *  *  *  *  *  *  *  *  *
E|------------------------------------------------------------------------------------------------|
B|1-----1-----1-----1-----0--------1--------0-----12-12-12-12-12-12-12-12-12-12-12-12-12-12-12-12-|
G|0-----0-----2-----2-----2s4------2--------0-----12-12-12-12-12-12-12-12-12-12-12-12-12-12-12-12-|
D|------------------------------------------------12-12-12-12-12-12-12-12-12-12-12-12-12-12-12-12-|
A|------------------------------------------------------------------------------------------------|
E|------------------------------------------------------------------------------------------------|
  1  +  2  +  3  +  4  +  1  +  2  +  3  +  4  +  1  +  2  +  3  +  4  +  1  +  2  +  3  +  4  +  


  *  *  *  *  *  *  *  *  *  *  *  *  *  *  *  *   
E|------------------------------------------------|
B|12-12-12-12-12-12-12-12-12-12-12-12-12-12-12-12-|
G|12-12-12-12-12-12-12-12-12-12-12-12-12-12-12-12-|
D|12-12-12-12-12-12-12-12-12-12-12-12-12-12-12-12-|
A|------------------------------------------------|
E|------------------------------------------------|
  1  +  2  +  3  +  4  +  1  +  2  +  3  +  4  +  



Guitar 2 (Nick)

E|3--3--3--3--3--3--3--3--3--3--3--3--3--3--3--3--3--3--3--3--3--3--3--3--3--3--3--3--3--3--3--3--|
B|0--0--0--0--0--0--0--0--0--0--0--0--0--0--0--0--1--1--1--1--1--1--1--1--1--1--1--1--1--1--1--1--|
G|0--0--0--0--0--0--0--0--0--0--0--0--0--0--0--0--2--2--2--2--2--2--2--2--2--2--2--2--2--2--2--2--|
D|0--0--0--0--0--0--0--0--2--2--2--2--2--2--2--2--2--2--2--2--2--2--2--2--2--2--2--2--2--2--2--2--|
A|------------------------------------------------------------------------------------------------|
E|------------------------------------------------------------------------------------------------|
  1  +  2  +  3  +  4  +  1  +  2  +  3  +  4  +  1  +  2  +  3  +  4  +  1  +  2  +  3  +  4  +



E|3--3--3--3--3--3--3--3--3--3--3--3--3--3--3--3--2--2--2--2--2--2--2--2--2--2--2--2--2--2--2--2--|
B|1--1--1--1--1--1--1--1--1--1--1--1--1--1--1--1--3--3--3--3--3--3--3--3--3--3--3--3--3--3--3--3--|
G|2--2--2--2--2--2--2--2--2--2--2--2--2--2--2--2--2--2--2--2--2--2--2--2--2--2--2--2--2--2--2--2--|
D|2--2--2--2--2--2--2--2--2--2--2--2--2--2--2--2--0--0--0--0--0--0--0--0--0--0--0--0--0--0--0--0--|
A|------------------------------------------------------------------------------------------------|
E|------------------------------------------------------------------------------------------------|
  1  +  2  +  3  +  4  +  1  +  2  +  3  +  4  +  1  +  2  +  3  +  4  +  1  +  2  +  3  +  4  +  



E|2--2--2--2--2--2--2--2--2--2--2--2--2--2--2--2--------------------------------------------------|
B|3--3--3--3--3--3--3--3--3--3--3--3--3--3--3--3--1--1--1--1--1--1--1--1--1--1--1--1--1--1--1--1--|
G|2--2--2--2--2--2--2--2--2--2--2--2--2--2--2--2--0--0--0--0--0--0--0--0--0--0--0--0--0--0--0--0--|
D|0--0--0--0--0--0--0--0--0--0--0--0--0--0--0--0--2--2--2--2--2--2--2--2--2--2--2--2--2--2--2--2--|
A|------------------------------------------------3--3--3--3--3--3--3--3--3--3--3--3--3--3--3--3--|
E|------------------------------------------------------------------------------------------------|
  1  +  2  +  3  +  4  +  1  +  2  +  3  +  4  +  1  +  2  +  3  +  4  +  1  +  2  +  3  +  4  +  


                                                     *  *  *  *  *  *  *  *  *  *  *  *  *  *  * 
E|------------------------------------------------3--3--3--3--3--3--3--3--3--3--3--3--3--3--3--3--|
B|1--1--1--1--1--1--1--1--1--1--1--1--1--1--1--1--3--3--3--3--3--3--3--3--3--3--3--3--3--3--3--3--|
G|0--0--0--0--0--0--0--0--0--0--0--0--0--0--0--0--4--4--4--4--4--4--4--4--4--4--4--4--4--4--4--4--|
D|2--2--2--2--2--2--2--2--2--2--2--2--2--2--2--2--5--5--5--5--5--5--5--5--5--5--5--5--5--5--5--5--|
A|0--0--0--0--0--0--0--0--0--0--0--0--0--0--0--0--------------------------------------------------|
E|------------------------------------------------------------------------------------------------|
  1  +  2  +  3  +  4  +  1  +  2  +  3  +  4  +  1  +  2  +  3  +  4  +  1  +  2  +  3  +  4  +  


  *  *  *  *  *  *  *  *  *  *  *  *  *  *  *  *
E|3--3--3--3--3--3--3--3--3--3--3--3--3--3--3--3--|
B|3--3--3--3--3--3--3--3--3--3--3--3--3--3--3--3--|
G|4--4--4--4--4--4--4--4--4--4--4--4--4--4--4--4--|
D|5--5--5--5--5--5--5--5--5--5--5--5--5--5--5--5--|
A|------------------------------------------------|
E|------------------------------------------------|
  1  +  2  +  3  +  4  +  1  +  2  +  3  +  4  +

  
Repeat Intro/Verse


[Intro/Verse]

Guitar 1 (Albert)

E|------------------------------------------------------------------------------------------------|
B|8--8--8--8--8--8--8--8--7--7--7--7--7--7--7--7--8--8--8--8--8--8--8--8--8--8--8--8--8--8--8--8--|
G|7--7--7--7--7--7--7--7--7--7--7--7--7--7--7--7--7--7--7--7--7--7--7--7--7--7--7--7--7--7--7--7--|
D|9--9--9--9--9--9--9--9--9--9--9--9--9--9--9--9--7--7--7--7--7--7--7--7--7--7--7--7--7--7--7--7--|
A|------------------------------------------------------------------------------------------------|
E|------------------------------------------------------------------------------------------------|
  1  +  2  +  3  +  4  +  1  +  2  +  3  +  4  +  1  +  2  +  3  +  4  +  1  +  2  +  3  +  4  +   

  

E|------------------------------------------------------------------------------------------------|
B|------------------------------------------------------------------------7-----------5-----------|
G|5-----7-----7s9---------------------------------7-----5-----7s9---5-----------5-----------------|
D|------------------7-----------------5-----------------------------------------------------7-----|
A|------------------------------------------------------------------------------------------------|
E|------------------------------------------------------------------------------------------------|
  1  +  2  +  3  +  4  +  1  +  2  +  3  +  4  +  1  +  2  +  3  +  4  +  1  +  2  +  3  +  4  +  



E|------------------------------------------------------------------------------------------------|
B|------------------------7-----------5-----------1-----1-----1-----1-----0--------1--------------|
G|7-----5-----7s9---5-----------------------------0-----0-----2-----2-----2s4------2--------------|
D|------------------------------------------------------------------------------------------------|
A|------------------------------------------------------------------------------------------------|
E|------------------------------------------------------------------------------------------------|
  1  +  2  +  3  +  4  +  1  +  2  +  3  +  4  +  1  +  2  +  3  +  4  +  1  +  2  +  3  +  4  +  


                                                     *  *  *  *  *  *  *  *  *  *  *  *  *  *  *
E|------------------------------------------------------------------------------------------------|
B|1-----1-----1-----1-----0--------1--------0-----12-12-12-12-12-12-12-12-12-12-12-12-12-12-12-12-|
G|0-----0-----2-----2-----2s4------2--------0-----12-12-12-12-12-12-12-12-12-12-12-12-12-12-12-12-|
D|------------------------------------------------12-12-12-12-12-12-12-12-12-12-12-12-12-12-12-12-|
A|------------------------------------------------------------------------------------------------|
E|------------------------------------------------------------------------------------------------|
  1  +  2  +  3  +  4  +  1  +  2  +  3  +  4  +  1  +  2  +  3  +  4  +  1  +  2  +  3  +  4  +  


  *  *  *  *  *  *  *  *  *  *  *  *  *  *  *  *   
E|------------------------------------------------|
B|12-12-12-12-12-12-12-12-12-12-12-12-12-12-12-12-|
G|12-12-12-12-12-12-12-12-12-12-12-12-12-12-12-12-|
D|12-12-12-12-12-12-12-12-12-12-12-12-12-12-12-12-|
A|------------------------------------------------|
E|------------------------------------------------|
  1  +  2  +  3  +  4  +  1  +  2  +  3  +  4  +  



Guitar 2 (Nick)

E|3--3--3--3--3--3--3--3--3--3--3--3--3--3--3--3--3--3--3--3--3--3--3--3--3--3--3--3--3--3--3--3--|
B|0--0--0--0--0--0--0--0--0--0--0--0--0--0--0--0--1--1--1--1--1--1--1--1--1--1--1--1--1--1--1--1--|
G|0--0--0--0--0--0--0--0--0--0--0--0--0--0--0--0--2--2--2--2--2--2--2--2--2--2--2--2--2--2--2--2--|
D|0--0--0--0--0--0--0--0--2--2--2--2--2--2--2--2--2--2--2--2--2--2--2--2--2--2--2--2--2--2--2--2--|
A|------------------------------------------------------------------------------------------------|
E|------------------------------------------------------------------------------------------------|
  1  +  2  +  3  +  4  +  1  +  2  +  3  +  4  +  1  +  2  +  3  +  4  +  1  +  2  +  3  +  4  +



E|3--3--3--3--3--3--3--3--3--3--3--3--3--3--3--3--2--2--2--2--2--2--2--2--2--2--2--2--2--2--2--2--|
B|1--1--1--1--1--1--1--1--1--1--1--1--1--1--1--1--3--3--3--3--3--3--3--3--3--3--3--3--3--3--3--3--|
G|2--2--2--2--2--2--2--2--2--2--2--2--2--2--2--2--2--2--2--2--2--2--2--2--2--2--2--2--2--2--2--2--|
D|2--2--2--2--2--2--2--2--2--2--2--2--2--2--2--2--0--0--0--0--0--0--0--0--0--0--0--0--0--0--0--0--|
A|------------------------------------------------------------------------------------------------|
E|------------------------------------------------------------------------------------------------|
  1  +  2  +  3  +  4  +  1  +  2  +  3  +  4  +  1  +  2  +  3  +  4  +  1  +  2  +  3  +  4  +  



E|2--2--2--2--2--2--2--2--2--2--2--2--2--2--2--2--------------------------------------------------|
B|3--3--3--3--3--3--3--3--3--3--3--3--3--3--3--3--1--1--1--1--1--1--1--1--1--1--1--1--1--1--1--1--|
G|2--2--2--2--2--2--2--2--2--2--2--2--2--2--2--2--0--0--0--0--0--0--0--0--0--0--0--0--0--0--0--0--|
D|0--0--0--0--0--0--0--0--0--0--0--0--0--0--0--0--2--2--2--2--2--2--2--2--2--2--2--2--2--2--2--2--|
A|------------------------------------------------3--3--3--3--3--3--3--3--3--3--3--3--3--3--3--3--|
E|------------------------------------------------------------------------------------------------|
  1  +  2  +  3  +  4  +  1  +  2  +  3  +  4  +  1  +  2  +  3  +  4  +  1  +  2  +  3  +  4  +  


                                                     *  *  *  *  *  *  *  *  *  *  *  *  *  *  * 
E|------------------------------------------------3--3--3--3--3--3--3--3--3--3--3--3--3--3--3--3--|
B|1--1--1--1--1--1--1--1--1--1--1--1--1--1--1--1--3--3--3--3--3--3--3--3--3--3--3--3--3--3--3--3--|
G|0--0--0--0--0--0--0--0--0--0--0--0--0--0--0--0--4--4--4--4--4--4--4--4--4--4--4--4--4--4--4--4--|
D|2--2--2--2--2--2--2--2--2--2--2--2--2--2--2--2--5--5--5--5--5--5--5--5--5--5--5--5--5--5--5--5--|
A|0--0--0--0--0--0--0--0--0--0--0--0--0--0--0--0--------------------------------------------------|
E|------------------------------------------------------------------------------------------------|
  1  +  2  +  3  +  4  +  1  +  2  +  3  +  4  +  1  +  2  +  3  +  4  +  1  +  2  +  3  +  4  +  


  *  *  *  *  *  *  *  *  *  *  *  *  *  *  *  *
E|3--3--3--3--3--3--3--3--3--3--3--3--3--3--3--3--|
B|3--3--3--3--3--3--3--3--3--3--3--3--3--3--3--3--|
G|4--4--4--4--4--4--4--4--4--4--4--4--4--4--4--4--|
D|5--5--5--5--5--5--5--5--5--5--5--5--5--5--5--5--|
A|------------------------------------------------|
E|------------------------------------------------|
  1  +  2  +  3  +  4  +  1  +  2  +  3  +  4  +


[Verse extended]

Guitar 1 (Albert)

E|------------------------------------------------------------------------------------------------|
B|8--8--8--8--8--8--8--8--7--7--7--7--7--7--7--7--8--8--8--8--8--8--8--8--8--8--8--8--8--8--8--8--|
G|7--7--7--7--7--7--7--7--7--7--7--7--7--7--7--7--7--7--7--7--7--7--7--7--7--7--7--7--7--7--7--7--|
D|9--9--9--9--9--9--9--9--9--9--9--9--9--9--9--9--7--7--7--7--7--7--7--7--7--7--7--7--7--7--7--7--|
A|------------------------------------------------------------------------------------------------|
E|------------------------------------------------------------------------------------------------|
  1  +  2  +  3  +  4  +  1  +  2  +  3  +  4  +  1  +  2  +  3  +  4  +  1  +  2  +  3  +  4  +   



E|------------------------------------------------------------------------------------------------|
B|------------------------------------------------------------------------7-----------5-----------|
G|5-----7-----7s9---------------------------------7-----5-----7s9---5-----------5-----------------|
D|------------------7-----------------5-----------------------------------------------------7-----|
A|------------------------------------------------------------------------------------------------|
E|------------------------------------------------------------------------------------------------|
  1  +  2  +  3  +  4  +  1  +  2  +  3  +  4  +  1  +  2  +  3  +  4  +  1  +  2  +  3  +  4  +  



E|------------------------------------------------------------------------------------------------|
B|------------------------7-----------5-----------1-----1-----1-----1-----0--------1--------------|
G|7-----5-----7s9---5-----------------------------0-----0-----2-----2-----2s4------2--------------|
D|------------------------------------------------------------------------------------------------|
A|------------------------------------------------------------------------------------------------|
E|------------------------------------------------------------------------------------------------|
  1  +  2  +  3  +  4  +  1  +  2  +  3  +  4  +  1  +  2  +  3  +  4  +  1  +  2  +  3  +  4  +  


                                               
E|------------------------------------------------------------------------------------------------|
B|1-----1-----1-----1-----0--------1~-------------------------------------------------3/----------|
G|0-----0-----2-----2-----2s4------2~-------------------------------------------------2/----------|
D|------------------------------------------------------------------------------------------------|
A|------------------------------------------------------------------------------------------------|
E|------------------------------------------------------------------------------------------------|
  1  +  2  +  3  +  4  +  1  +  2  +  3  +  4  +  1  +  2  +  3  +  4  +  1  +  2  +  3  +  4  +  



Guitar 2 (Nick)

E|3--3--3--3--3--3--3--3--3--3--3--3--3--3--3--3--3--3--3--3--3--3--3--3--3--3--3--3--3--3--3--3--|
B|0--0--0--0--0--0--0--0--0--0--0--0--0--0--0--0--1--1--1--1--1--1--1--1--1--1--1--1--1--1--1--1--|
G|0--0--0--0--0--0--0--0--0--0--0--0--0--0--0--0--2--2--2--2--2--2--2--2--2--2--2--2--2--2--2--2--|
D|0--0--0--0--0--0--0--0--2--2--2--2--2--2--2--2--2--2--2--2--2--2--2--2--2--2--2--2--2--2--2--2--|
A|------------------------------------------------------------------------------------------------|
E|------------------------------------------------------------------------------------------------|
  1  +  2  +  3  +  4  +  1  +  2  +  3  +  4  +  1  +  2  +  3  +  4  +  1  +  2  +  3  +  4  +



E|3--3--3--3--3--3--3--3--3--3--3--3--3--3--3--3--2--2--2--2--2--2--2--2--2--2--2--2--2--2--2--2--|
B|1--1--1--1--1--1--1--1--1--1--1--1--1--1--1--1--3--3--3--3--3--3--3--3--3--3--3--3--3--3--3--3--|
G|2--2--2--2--2--2--2--2--2--2--2--2--2--2--2--2--2--2--2--2--2--2--2--2--2--2--2--2--2--2--2--2--|
D|2--2--2--2--2--2--2--2--2--2--2--2--2--2--2--2--0--0--0--0--0--0--0--0--0--0--0--0--0--0--0--0--|
A|------------------------------------------------------------------------------------------------|
E|------------------------------------------------------------------------------------------------|
  1  +  2  +  3  +  4  +  1  +  2  +  3  +  4  +  1  +  2  +  3  +  4  +  1  +  2  +  3  +  4  +  



E|2--2--2--2--2--2--2--2--2--2--2--2--2--2--2--2--------------------------------------------------|
B|3--3--3--3--3--3--3--3--3--3--3--3--3--3--3--3--1--1--1--1--1--1--1--1--1--1--1--1--1--1--1--1--|
G|2--2--2--2--2--2--2--2--2--2--2--2--2--2--2--2--0--0--0--0--0--0--0--0--0--0--0--0--0--0--0--0--|
D|0--0--0--0--0--0--0--0--0--0--0--0--0--0--0--0--2--2--2--2--2--2--2--2--2--2--2--2--2--2--2--2--|
A|------------------------------------------------3--3--3--3--3--3--3--3--3--3--3--3--3--3--3--3--|
E|------------------------------------------------------------------------------------------------|
  1  +  2  +  3  +  4  +  1  +  2  +  3  +  4  +  1  +  2  +  3  +  4  +  1  +  2  +  3  +  4  +  


                                                     
E|------------------------------------------------------------------------------------------------|
B|1--1--1--1--1--1--1--1--1--1--1--1--1--1--1--1--1--1--1--1--1--1--1--1--1--1--1--1--1--1--1--1--|
G|0--0--0--0--0--0--0--0--0--0--0--0--0--0--0--0--0--0--0--0--0--0--0--0--0--0--0--0--0--0--0--0--|
D|2--2--2--2--2--2--2--2--2--2--2--2--2--2--2--2--2--2--2--2--2--2--2--2--2--2--2--2--2--2--2--2--|
A|0--0--0--0--0--0--0--0--0--0--0--0--0--0--0--0--0--0--0--0--0--0--0--0--0--0--0--0--0--0--0--0--|
E|------------------------------------------------------------------------------------------------|
  1  +  2  +  3  +  4  +  1  +  2  +  3  +  4  +  1  +  2  +  3  +  4  +  1  +  2  +  3  +  4  +  



[Pre-Chorus]

Guitar 1 (Albert)

E|------------------------------------------------------------------------------------------------|
B|12-12-12-12-12-12-12-12-12-12-12-12-12-12-12-12-12-12-12-12-12-12-12-12-12-12-12-12-12-12-12-12-|
G|12-12-12-12-12-12-12-12-12-12-12-12-12-12-12-12-12-12-12-12-12-12-12-12-12-12-12-12-12-12-12-12-|
D|12-12-12-12-12-12-12-12-12-12-12-12-12-12-12-12-12-12-12-12-12-12-12-12-12-12-12-12-12-12-12-12-|
A|------------------------------------------------------------------------------------------------|
E|------------------------------------------------------------------------------------------------|
  1  +  2  +  3  +  4  +  1  +  2  +  3  +  4  +  1  +  2  +  3  +  4  +  1  +  2  +  3  +  4  +  



E|------------------------------------------------------------------------------------------------|
B|12-12-12-12-12-12-12-12-12-12-12-12-12-12-12-12-12-12-12-12-12-12-12-12-12-12-12-12-12-12-12-12-|
G|12-12-12-12-12-12-12-12-12-12-12-12-12-12-12-12-12-12-12-12-12-12-12-12-12-12-12-12-12-12-12-12-|
D|12-12-12-12-12-12-12-12-12-12-12-12-12-12-12-12-12-12-12-12-12-12-12-12-12-12-12-12-12-12-12-12-|
A|------------------------------------------------------------------------------------------------|
E|------------------------------------------------------------------------------------------------|
  1  +  2  +  3  +  4  +  1  +  2  +  3  +  4  +  1  +  2  +  3  +  4  +  1  +  2  +  3  +  4  +  



E|------------------------------------------------------------------------------------------------|
B|12-12-12-12-12-12-12-12-12-12-12-12-12-12-12-12-12-12-12-12-12-12-12-12-12-12-12-12-12-12-12-12-|
G|12-12-12-12-12-12-12-12-12-12-12-12-12-12-12-12-12-12-12-12-12-12-12-12-12-12-12-12-12-12-12-12-|
D|12-12-12-12-12-12-12-12-12-12-12-12-12-12-12-12-12-12-12-12-12-12-12-12-12-12-12-12-12-12-12-12-|
A|------------------------------------------------------------------------------------------------|
E|------------------------------------------------------------------------------------------------|
  1  +  2  +  3  +  4  +  1  +  2  +  3  +  4  +  1  +  2  +  3  +  4  +  1  +  2  +  3  +  4  +  



E|------------------------------------------------------------------------------------------------|
B|12-12-12-12-12-12-12-12-12-12-12-12-12-12-12-12-12-12-12-12-12-12-12-12-12-12-12-12-12-12-12-12-|
G|12-12-12-12-12-12-12-12-12-12-12-12-12-12-12-12-12-12-12-12-12-12-12-12-12-12-12-12-12-12-12-12-|
D|12-12-12-12-12-12-12-12-12-12-12-12-12-12-12-12-12-12-12-12-12-12-12-12-12-12-12-12-12-12-12-12-|
A|------------------------------------------------------------------------------------------------|
E|------------------------------------------------------------------------------------------------|
  1  +  2  +  3  +  4  +  1  +  2  +  3  +  4  +  1  +  2  +  3  +  4  +  1  +  2  +  3  +  4  +  



Guitar 2 (Nick)

E|3--3--3--3--3--3--3--3--3--3--3--3--3--3--3--3--3--3--3--3--3--3--3--3--3--3--3--3--3--3--3--3--|
B|0--0--0--0--0--0--0--0--0--0--0--0--0--0--0--0--0--0--0--0--0--0--0--0--0--0--0--0--0--0--0--0--|
G|0--0--0--0--0--0--0--0--0--0--0--0--0--0--0--0--0--0--0--0--0--0--0--0--0--0--0--0--0--0--0--0--|
D|0--0--0--0--0--0--0--0--0--0--0--0--0--0--0--0--2--2--2--2--2--2--2--2--2--2--2--2--2--2--2--2--|
A|------------------------------------------------------------------------------------------------|
E|------------------------------------------------------------------------------------------------|
  1  +  2  +  3  +  4  +  1  +  2  +  3  +  4  +  1  +  2  +  3  +  4  +  1  +  2  +  3  +  4  +  



E|3--3--3--3--3--3--3--3--3--3--3--3--3--3--3--3--3--3--3--3--3--3--3--3--3--3--3--3--3--3--3--3--|
B|0--0--0--0--0--0--0--0--0--0--0--0--0--0--0--0--1--1--1--1--1--1--1--1--1--1--1--1--1--1--1--1--|
G|0--0--0--0--0--0--0--0--0--0--0--0--0--0--0--0--2--2--2--2--2--2--2--2--2--2--2--2--2--2--2--2--|
D|0--0--0--0--0--0--0--0--0--0--0--0--0--0--0--0--2--2--2--2--2--2--2--2--2--2--2--2--2--2--2--2--|
A|2--2--2--2--2--2--2--2--2--2--2--2--2--2--2--2--------------------------------------------------|
E|------------------------------------------------------------------------------------------------|
  1  +  2  +  3  +  4  +  1  +  2  +  3  +  4  +  1  +  2  +  3  +  4  +  1  +  2  +  3  +  4  +  



E|3--3--3--3--3--3--3--3--3--3--3--3--3--3--3--3--3--3--3--3--3--3--3--3--3--3--3--3--3--3--3--3--|
B|0--0--0--0--0--0--0--0--0--0--0--0--0--0--0--0--0--0--0--0--0--0--0--0--0--0--0--0--0--0--0--0--|
G|0--0--0--0--0--0--0--0--0--0--0--0--0--0--0--0--0--0--0--0--0--0--0--0--0--0--0--0--0--0--0--0--|
D|0--0--0--0--0--0--0--0--0--0--0--0--0--0--0--0--2--2--2--2--2--2--2--2--2--2--2--2--2--2--2--2--|
A|------------------------------------------------------------------------------------------------|
E|------------------------------------------------------------------------------------------------|
  1  +  2  +  3  +  4  +  1  +  2  +  3  +  4  +  1  +  2  +  3  +  4  +  1  +  2  +  3  +  4  +  



E|3--3--3--3--3--3--3--3--3--3--3--3--3--3--3--3--3--3--3--3--3--3--3--3--3--3--3--3--3--3--3-----|
B|0--0--0--0--0--0--0--0--0--0--0--0--0--0--0--0--1--1--1--1--1--1--1--1--1--1--1--1--1--1--1-----|
G|0--0--0--0--0--0--0--0--0--0--0--0--0--0--0--0--2--2--2--2--2--2--2--2--2--2--2--2--2--2--2-----|
D|0--0--0--0--0--0--0--0--0--0--0--0--0--0--0--0--2--2--2--2--2--2--2--2--2--2--2--2--2--2--2--9--|
A|2--2--2--2--2--2--2--2--2--2--2--2--2--2--2--2--------------------------------------------------|
E|------------------------------------------------------------------------------------------------|
  1  +  2  +  3  +  4  +  1  +  2  +  3  +  4  +  1  +  2  +  3  +  4  +  1  +  2  +  3  +  4  +  



[Chorus]

Guitar 1 (Albert)

E|------------------------------------------------------------------------------------------------|
B|12-12-12-12-12-12-12-12-12-12-12-12-12-12-12-12-12-12-12-12-12-12-12-12-12-12-12-12-12-12-12-12-|
G|12-12-12-12-12-12-12-12-12-12-12-12-12-12-12-12-12-12-12-12-12-12-12-12-12-12-12-12-12-12-12-12-|
D|12-12-12-12-12-12-12-12-12-12-12-12-12-12-12-12-12-12-12-12-12-12-12-12-12-12-12-12-12-12-12-12-|
A|------------------------------------------------------------------------------------------------|
E|------------------------------------------------------------------------------------------------|
  1  +  2  +  3  +  4  +  1  +  2  +  3  +  4  +  1  +  2  +  3  +  4  +  1  +  2  +  3  +  4  +  



E|------------------------------------------------------------------------------------------------|
B|12-12-12-12-12-12-12-12-12-12-12-12-12-12-12-12-12-12-12-12-12-12-12-12-12-12-12-12-12-12-12-12-|
G|12-12-12-12-12-12-12-12-12-12-12-12-12-12-12-12-12-12-12-12-12-12-12-12-12-12-12-12-12-12-12-12-|
D|12-12-12-12-12-12-12-12-12-12-12-12-12-12-12-12-12-12-12-12-12-12-12-12-12-12-12-12-12-12-12-12-|
A|------------------------------------------------------------------------------------------------|
E|------------------------------------------------------------------------------------------------|
  1  +  2  +  3  +  4  +  1  +  2  +  3  +  4  +  1  +  2  +  3  +  4  +  1  +  2  +  3  +  4  +  



E|------------------------------------------------------------------------------------------------|
B|12-12-12-12-12-12-12-12-12-12-12-12-12-12-12-12-12-12-12-12-12-12-12-12-12-12-12-12-12-12-12-12-|
G|12-12-12-12-12-12-12-12-12-12-12-12-12-12-12-12-12-12-12-12-12-12-12-12-12-12-12-12-12-12-12-12-|
D|12-12-12-12-12-12-12-12-12-12-12-12-12-12-12-12-12-12-12-12-12-12-12-12-12-12-12-12-12-12-12-12-|
A|------------------------------------------------------------------------------------------------|
E|------------------------------------------------------------------------------------------------|
  1  +  2  +  3  +  4  +  1  +  2  +  3  +  4  +  1  +  2  +  3  +  4  +  1  +  2  +  3  +  4  +  



E|------------------------------------------------------------------------------------------------|
B|12-12-12-12-12-12-12-12-12-12-12-12-12-12-12-12-12-12-12----------------------------------------|
G|12-12-12-12-12-12-12-12-12-12-12-12-12-12-12-12-12-12-12----------------------------------------|
D|12-12-12-12-12-12-12-12-12-12-12-12-12-12-12-12-12-12-12----------------------------------------|
A|------------------------------------------------------------------------------------------------|
E|------------------------------------------------------------------------------------------------|
  1  +  2  +  3  +  4  +  1  +  2  +  3  +  4  +  1  +  2  +  3  +  4  +  1  +  2  +  3  +  4  +  



Guitar 2 (Nick)

E|------------------------------------------------------------------------------------------------|
B|------------------------------------------------------------------------------------------------|
G|------------------------------------------------------------------------------------------------|
D|12----9--10----9-----9--12----9--10----9--------9-----------------------9-----------------------|
A|---------------------------------------------10-------10-12----10----10-------10-12----10-------|
E|------------------------------------------------------------------------------------------------|
  1  +  2  +  3  +  4  +  1  +  2  +  3  +  4  +  1  +  2  +  3  +  4  +  1  +  2  +  3  +  4  +  
 


E|------------------------------------------------------------------------------------------------|
B|------------------------------------------------------------------------------------------------|
G|------------------------------------------------------------------------------------------------|
D|12----9--10----9-----9--12----9--10----9--------9-----------------------9-----------------------|
A|---------------------------------------------10-------10-12----10----10-------10-12----10-------|
E|------------------------------------------------------------------------------------------------|
  1  +  2  +  3  +  4  +  1  +  2  +  3  +  4  +  1  +  2  +  3  +  4  +  1  +  2  +  3  +  4  +  



E|------------------------------------------------------------------------------------------------|
B|------------------------------------------------------------------------------------------------|
G|------------------------------------------------------------------------------------------------|
D|12----9--10----9-----9--12----9--10----9--------9-----------------------9-----------------------|
A|---------------------------------------------10-------10-12----10----10-------10-12----10-------|
E|------------------------------------------------------------------------------------------------|
  1  +  2  +  3  +  4  +  1  +  2  +  3  +  4  +  1  +  2  +  3  +  4  +  1  +  2  +  3  +  4  +  



E|------------------------------------------------------------------------------------------------|
B|------------------------------------------------------------------------------------------------|
G|------------------------------------------------------------------------------------------------|
D|12----9--10----9-----9--12----9--10----9--------9-----------------------------------------------|
A|---------------------------------------------10-------10\---------------------------------------|
E|------------------------------------------------------------------------------------------------|
  1  +  2  +  3  +  4  +  1  +  2  +  3  +  4  +  1  +  2  +  3  +  4  +  1  +  2  +  3  +  4  +  



Repeat INTRO/VERSE


[Intro/Verse]

Guitar 1 (Albert)

E|------------------------------------------------------------------------------------------------|
B|8--8--8--8--8--8--8--8--7--7--7--7--7--7--7--7--8--8--8--8--8--8--8--8--8--8--8--8--8--8--8--8--|
G|7--7--7--7--7--7--7--7--7--7--7--7--7--7--7--7--7--7--7--7--7--7--7--7--7--7--7--7--7--7--7--7--|
D|9--9--9--9--9--9--9--9--9--9--9--9--9--9--9--9--7--7--7--7--7--7--7--7--7--7--7--7--7--7--7--7--|
A|------------------------------------------------------------------------------------------------|
E|------------------------------------------------------------------------------------------------|
  1  +  2  +  3  +  4  +  1  +  2  +  3  +  4  +  1  +  2  +  3  +  4  +  1  +  2  +  3  +  4  +   

  

E|------------------------------------------------------------------------------------------------|
B|------------------------------------------------------------------------7-----------5-----------|
G|5-----7-----7s9---------------------------------7-----5-----7s9---5-----------5-----------------|
D|------------------7-----------------5-----------------------------------------------------7-----|
A|------------------------------------------------------------------------------------------------|
E|------------------------------------------------------------------------------------------------|
  1  +  2  +  3  +  4  +  1  +  2  +  3  +  4  +  1  +  2  +  3  +  4  +  1  +  2  +  3  +  4  +  



E|------------------------------------------------------------------------------------------------|
B|------------------------7-----------5-----------1-----1-----1-----1-----0--------1--------------|
G|7-----5-----7s9---5-----------------------------0-----0-----2-----2-----2s4------2--------------|
D|------------------------------------------------------------------------------------------------|
A|------------------------------------------------------------------------------------------------|
E|------------------------------------------------------------------------------------------------|
  1  +  2  +  3  +  4  +  1  +  2  +  3  +  4  +  1  +  2  +  3  +  4  +  1  +  2  +  3  +  4  +  


                                                     *  *  *  *  *  *  *  *  *  *  *  *  *  *  *
E|------------------------------------------------------------------------------------------------|
B|1-----1-----1-----1-----0--------1--------0-----12-12-12-12-12-12-12-12-12-12-12-12-12-12-12-12-|
G|0-----0-----2-----2-----2s4------2--------0-----12-12-12-12-12-12-12-12-12-12-12-12-12-12-12-12-|
D|------------------------------------------------12-12-12-12-12-12-12-12-12-12-12-12-12-12-12-12-|
A|------------------------------------------------------------------------------------------------|
E|------------------------------------------------------------------------------------------------|
  1  +  2  +  3  +  4  +  1  +  2  +  3  +  4  +  1  +  2  +  3  +  4  +  1  +  2  +  3  +  4  +  


  *  *  *  *  *  *  *  *  *  *  *  *  *  *  *  *   
E|------------------------------------------------|
B|12-12-12-12-12-12-12-12-12-12-12-12-12-12-12-12-|
G|12-12-12-12-12-12-12-12-12-12-12-12-12-12-12-12-|
D|12-12-12-12-12-12-12-12-12-12-12-12-12-12-12-12-|
A|------------------------------------------------|
E|------------------------------------------------|
  1  +  2  +  3  +  4  +  1  +  2  +  3  +  4  +  



Guitar 2 (Nick)

E|3--3--3--3--3--3--3--3--3--3--3--3--3--3--3--3--3--3--3--3--3--3--3--3--3--3--3--3--3--3--3--3--|
B|0--0--0--0--0--0--0--0--0--0--0--0--0--0--0--0--1--1--1--1--1--1--1--1--1--1--1--1--1--1--1--1--|
G|0--0--0--0--0--0--0--0--0--0--0--0--0--0--0--0--2--2--2--2--2--2--2--2--2--2--2--2--2--2--2--2--|
D|0--0--0--0--0--0--0--0--2--2--2--2--2--2--2--2--2--2--2--2--2--2--2--2--2--2--2--2--2--2--2--2--|
A|------------------------------------------------------------------------------------------------|
E|------------------------------------------------------------------------------------------------|
  1  +  2  +  3  +  4  +  1  +  2  +  3  +  4  +  1  +  2  +  3  +  4  +  1  +  2  +  3  +  4  +



E|3--3--3--3--3--3--3--3--3--3--3--3--3--3--3--3--2--2--2--2--2--2--2--2--2--2--2--2--2--2--2--2--|
B|1--1--1--1--1--1--1--1--1--1--1--1--1--1--1--1--3--3--3--3--3--3--3--3--3--3--3--3--3--3--3--3--|
G|2--2--2--2--2--2--2--2--2--2--2--2--2--2--2--2--2--2--2--2--2--2--2--2--2--2--2--2--2--2--2--2--|
D|2--2--2--2--2--2--2--2--2--2--2--2--2--2--2--2--0--0--0--0--0--0--0--0--0--0--0--0--0--0--0--0--|
A|------------------------------------------------------------------------------------------------|
E|------------------------------------------------------------------------------------------------|
  1  +  2  +  3  +  4  +  1  +  2  +  3  +  4  +  1  +  2  +  3  +  4  +  1  +  2  +  3  +  4  +  



E|2--2--2--2--2--2--2--2--2--2--2--2--2--2--2--2--------------------------------------------------|
B|3--3--3--3--3--3--3--3--3--3--3--3--3--3--3--3--1--1--1--1--1--1--1--1--1--1--1--1--1--1--1--1--|
G|2--2--2--2--2--2--2--2--2--2--2--2--2--2--2--2--0--0--0--0--0--0--0--0--0--0--0--0--0--0--0--0--|
D|0--0--0--0--0--0--0--0--0--0--0--0--0--0--0--0--2--2--2--2--2--2--2--2--2--2--2--2--2--2--2--2--|
A|------------------------------------------------3--3--3--3--3--3--3--3--3--3--3--3--3--3--3--3--|
E|------------------------------------------------------------------------------------------------|
  1  +  2  +  3  +  4  +  1  +  2  +  3  +  4  +  1  +  2  +  3  +  4  +  1  +  2  +  3  +  4  +  


                                                     *  *  *  *  *  *  *  *  *  *  *  *  *  *  * 
E|------------------------------------------------3--3--3--3--3--3--3--3--3--3--3--3--3--3--3--3--|
B|1--1--1--1--1--1--1--1--1--1--1--1--1--1--1--1--3--3--3--3--3--3--3--3--3--3--3--3--3--3--3--3--|
G|0--0--0--0--0--0--0--0--0--0--0--0--0--0--0--0--4--4--4--4--4--4--4--4--4--4--4--4--4--4--4--4--|
D|2--2--2--2--2--2--2--2--2--2--2--2--2--2--2--2--5--5--5--5--5--5--5--5--5--5--5--5--5--5--5--5--|
A|0--0--0--0--0--0--0--0--0--0--0--0--0--0--0--0--------------------------------------------------|
E|------------------------------------------------------------------------------------------------|
  1  +  2  +  3  +  4  +  1  +  2  +  3  +  4  +  1  +  2  +  3  +  4  +  1  +  2  +  3  +  4  +  


  *  *  *  *  *  *  *  *  *  *  *  *  *  *  *  *
E|3--3--3--3--3--3--3--3--3--3--3--3--3--3--3--3--|
B|3--3--3--3--3--3--3--3--3--3--3--3--3--3--3--3--|
G|4--4--4--4--4--4--4--4--4--4--4--4--4--4--4--4--|
D|5--5--5--5--5--5--5--5--5--5--5--5--5--5--5--5--|
A|------------------------------------------------|
E|------------------------------------------------|
  1  +  2  +  3  +  4  +  1  +  2  +  3  +  4  +

  
Repeat VERSE EXTENDED


[Verse extended]

Guitar 1 (Albert)

E|------------------------------------------------------------------------------------------------|
B|8--8--8--8--8--8--8--8--7--7--7--7--7--7--7--7--8--8--8--8--8--8--8--8--8--8--8--8--8--8--8--8--|
G|7--7--7--7--7--7--7--7--7--7--7--7--7--7--7--7--7--7--7--7--7--7--7--7--7--7--7--7--7--7--7--7--|
D|9--9--9--9--9--9--9--9--9--9--9--9--9--9--9--9--7--7--7--7--7--7--7--7--7--7--7--7--7--7--7--7--|
A|------------------------------------------------------------------------------------------------|
E|------------------------------------------------------------------------------------------------|
  1  +  2  +  3  +  4  +  1  +  2  +  3  +  4  +  1  +  2  +  3  +  4  +  1  +  2  +  3  +  4  +   



E|------------------------------------------------------------------------------------------------|
B|------------------------------------------------------------------------7-----------5-----------|
G|5-----7-----7s9---------------------------------7-----5-----7s9---5-----------5-----------------|
D|------------------7-----------------5-----------------------------------------------------7-----|
A|------------------------------------------------------------------------------------------------|
E|------------------------------------------------------------------------------------------------|
  1  +  2  +  3  +  4  +  1  +  2  +  3  +  4  +  1  +  2  +  3  +  4  +  1  +  2  +  3  +  4  +  



E|------------------------------------------------------------------------------------------------|
B|------------------------7-----------5-----------1-----1-----1-----1-----0--------1--------------|
G|7-----5-----7s9---5-----------------------------0-----0-----2-----2-----2s4------2--------------|
D|------------------------------------------------------------------------------------------------|
A|------------------------------------------------------------------------------------------------|
E|------------------------------------------------------------------------------------------------|
  1  +  2  +  3  +  4  +  1  +  2  +  3  +  4  +  1  +  2  +  3  +  4  +  1  +  2  +  3  +  4  +  


                                               
E|------------------------------------------------------------------------------------------------|
B|1-----1-----1-----1-----0--------1~-------------------------------------------------3/----------|
G|0-----0-----2-----2-----2s4------2~-------------------------------------------------2/----------|
D|------------------------------------------------------------------------------------------------|
A|------------------------------------------------------------------------------------------------|
E|------------------------------------------------------------------------------------------------|
  1  +  2  +  3  +  4  +  1  +  2  +  3  +  4  +  1  +  2  +  3  +  4  +  1  +  2  +  3  +  4  +  



Guitar 2 (Nick)

E|3--3--3--3--3--3--3--3--3--3--3--3--3--3--3--3--3--3--3--3--3--3--3--3--3--3--3--3--3--3--3--3--|
B|0--0--0--0--0--0--0--0--0--0--0--0--0--0--0--0--1--1--1--1--1--1--1--1--1--1--1--1--1--1--1--1--|
G|0--0--0--0--0--0--0--0--0--0--0--0--0--0--0--0--2--2--2--2--2--2--2--2--2--2--2--2--2--2--2--2--|
D|0--0--0--0--0--0--0--0--2--2--2--2--2--2--2--2--2--2--2--2--2--2--2--2--2--2--2--2--2--2--2--2--|
A|------------------------------------------------------------------------------------------------|
E|------------------------------------------------------------------------------------------------|
  1  +  2  +  3  +  4  +  1  +  2  +  3  +  4  +  1  +  2  +  3  +  4  +  1  +  2  +  3  +  4  +



E|3--3--3--3--3--3--3--3--3--3--3--3--3--3--3--3--2--2--2--2--2--2--2--2--2--2--2--2--2--2--2--2--|
B|1--1--1--1--1--1--1--1--1--1--1--1--1--1--1--1--3--3--3--3--3--3--3--3--3--3--3--3--3--3--3--3--|
G|2--2--2--2--2--2--2--2--2--2--2--2--2--2--2--2--2--2--2--2--2--2--2--2--2--2--2--2--2--2--2--2--|
D|2--2--2--2--2--2--2--2--2--2--2--2--2--2--2--2--0--0--0--0--0--0--0--0--0--0--0--0--0--0--0--0--|
A|------------------------------------------------------------------------------------------------|
E|------------------------------------------------------------------------------------------------|
  1  +  2  +  3  +  4  +  1  +  2  +  3  +  4  +  1  +  2  +  3  +  4  +  1  +  2  +  3  +  4  +  



E|2--2--2--2--2--2--2--2--2--2--2--2--2--2--2--2--------------------------------------------------|
B|3--3--3--3--3--3--3--3--3--3--3--3--3--3--3--3--1--1--1--1--1--1--1--1--1--1--1--1--1--1--1--1--|
G|2--2--2--2--2--2--2--2--2--2--2--2--2--2--2--2--0--0--0--0--0--0--0--0--0--0--0--0--0--0--0--0--|
D|0--0--0--0--0--0--0--0--0--0--0--0--0--0--0--0--2--2--2--2--2--2--2--2--2--2--2--2--2--2--2--2--|
A|------------------------------------------------3--3--3--3--3--3--3--3--3--3--3--3--3--3--3--3--|
E|------------------------------------------------------------------------------------------------|
  1  +  2  +  3  +  4  +  1  +  2  +  3  +  4  +  1  +  2  +  3  +  4  +  1  +  2  +  3  +  4  +  


                                                     
E|------------------------------------------------------------------------------------------------|
B|1--1--1--1--1--1--1--1--1--1--1--1--1--1--1--1--1--1--1--1--1--1--1--1--1--1--1--1--1--1--1--1--|
G|0--0--0--0--0--0--0--0--0--0--0--0--0--0--0--0--0--0--0--0--0--0--0--0--0--0--0--0--0--0--0--0--|
D|2--2--2--2--2--2--2--2--2--2--2--2--2--2--2--2--2--2--2--2--2--2--2--2--2--2--2--2--2--2--2--2--|
A|0--0--0--0--0--0--0--0--0--0--0--0--0--0--0--0--0--0--0--0--0--0--0--0--0--0--0--0--0--0--0--0--|
E|------------------------------------------------------------------------------------------------|
  1  +  2  +  3  +  4  +  1  +  2  +  3  +  4  +  1  +  2  +  3  +  4  +  1  +  2  +  3  +  4  +  

  
Repeat PRE CHORUS


[Pre-Chorus]

Guitar 1 (Albert)

E|------------------------------------------------------------------------------------------------|
B|12-12-12-12-12-12-12-12-12-12-12-12-12-12-12-12-12-12-12-12-12-12-12-12-12-12-12-12-12-12-12-12-|
G|12-12-12-12-12-12-12-12-12-12-12-12-12-12-12-12-12-12-12-12-12-12-12-12-12-12-12-12-12-12-12-12-|
D|12-12-12-12-12-12-12-12-12-12-12-12-12-12-12-12-12-12-12-12-12-12-12-12-12-12-12-12-12-12-12-12-|
A|------------------------------------------------------------------------------------------------|
E|------------------------------------------------------------------------------------------------|
  1  +  2  +  3  +  4  +  1  +  2  +  3  +  4  +  1  +  2  +  3  +  4  +  1  +  2  +  3  +  4  +  



E|------------------------------------------------------------------------------------------------|
B|12-12-12-12-12-12-12-12-12-12-12-12-12-12-12-12-12-12-12-12-12-12-12-12-12-12-12-12-12-12-12-12-|
G|12-12-12-12-12-12-12-12-12-12-12-12-12-12-12-12-12-12-12-12-12-12-12-12-12-12-12-12-12-12-12-12-|
D|12-12-12-12-12-12-12-12-12-12-12-12-12-12-12-12-12-12-12-12-12-12-12-12-12-12-12-12-12-12-12-12-|
A|------------------------------------------------------------------------------------------------|
E|------------------------------------------------------------------------------------------------|
  1  +  2  +  3  +  4  +  1  +  2  +  3  +  4  +  1  +  2  +  3  +  4  +  1  +  2  +  3  +  4  +  



E|------------------------------------------------------------------------------------------------|
B|12-12-12-12-12-12-12-12-12-12-12-12-12-12-12-12-12-12-12-12-12-12-12-12-12-12-12-12-12-12-12-12-|
G|12-12-12-12-12-12-12-12-12-12-12-12-12-12-12-12-12-12-12-12-12-12-12-12-12-12-12-12-12-12-12-12-|
D|12-12-12-12-12-12-12-12-12-12-12-12-12-12-12-12-12-12-12-12-12-12-12-12-12-12-12-12-12-12-12-12-|
A|------------------------------------------------------------------------------------------------|
E|------------------------------------------------------------------------------------------------|
  1  +  2  +  3  +  4  +  1  +  2  +  3  +  4  +  1  +  2  +  3  +  4  +  1  +  2  +  3  +  4  +  



E|------------------------------------------------------------------------------------------------|
B|12-12-12-12-12-12-12-12-12-12-12-12-12-12-12-12-12-12-12-12-12-12-12-12-12-12-12-12-12-12-12-12-|
G|12-12-12-12-12-12-12-12-12-12-12-12-12-12-12-12-12-12-12-12-12-12-12-12-12-12-12-12-12-12-12-12-|
D|12-12-12-12-12-12-12-12-12-12-12-12-12-12-12-12-12-12-12-12-12-12-12-12-12-12-12-12-12-12-12-12-|
A|------------------------------------------------------------------------------------------------|
E|------------------------------------------------------------------------------------------------|
  1  +  2  +  3  +  4  +  1  +  2  +  3  +  4  +  1  +  2  +  3  +  4  +  1  +  2  +  3  +  4  +  



Guitar 2 (Nick)

E|3--3--3--3--3--3--3--3--3--3--3--3--3--3--3--3--3--3--3--3--3--3--3--3--3--3--3--3--3--3--3--3--|
B|0--0--0--0--0--0--0--0--0--0--0--0--0--0--0--0--0--0--0--0--0--0--0--0--0--0--0--0--0--0--0--0--|
G|0--0--0--0--0--0--0--0--0--0--0--0--0--0--0--0--0--0--0--0--0--0--0--0--0--0--0--0--0--0--0--0--|
D|0--0--0--0--0--0--0--0--0--0--0--0--0--0--0--0--2--2--2--2--2--2--2--2--2--2--2--2--2--2--2--2--|
A|------------------------------------------------------------------------------------------------|
E|------------------------------------------------------------------------------------------------|
  1  +  2  +  3  +  4  +  1  +  2  +  3  +  4  +  1  +  2  +  3  +  4  +  1  +  2  +  3  +  4  +  



E|3--3--3--3--3--3--3--3--3--3--3--3--3--3--3--3--3--3--3--3--3--3--3--3--3--3--3--3--3--3--3--3--|
B|0--0--0--0--0--0--0--0--0--0--0--0--0--0--0--0--1--1--1--1--1--1--1--1--1--1--1--1--1--1--1--1--|
G|0--0--0--0--0--0--0--0--0--0--0--0--0--0--0--0--2--2--2--2--2--2--2--2--2--2--2--2--2--2--2--2--|
D|0--0--0--0--0--0--0--0--0--0--0--0--0--0--0--0--2--2--2--2--2--2--2--2--2--2--2--2--2--2--2--2--|
A|2--2--2--2--2--2--2--2--2--2--2--2--2--2--2--2--------------------------------------------------|
E|------------------------------------------------------------------------------------------------|
  1  +  2  +  3  +  4  +  1  +  2  +  3  +  4  +  1  +  2  +  3  +  4  +  1  +  2  +  3  +  4  +  



E|3--3--3--3--3--3--3--3--3--3--3--3--3--3--3--3--3--3--3--3--3--3--3--3--3--3--3--3--3--3--3--3--|
B|0--0--0--0--0--0--0--0--0--0--0--0--0--0--0--0--0--0--0--0--0--0--0--0--0--0--0--0--0--0--0--0--|
G|0--0--0--0--0--0--0--0--0--0--0--0--0--0--0--0--0--0--0--0--0--0--0--0--0--0--0--0--0--0--0--0--|
D|0--0--0--0--0--0--0--0--0--0--0--0--0--0--0--0--2--2--2--2--2--2--2--2--2--2--2--2--2--2--2--2--|
A|------------------------------------------------------------------------------------------------|
E|------------------------------------------------------------------------------------------------|
  1  +  2  +  3  +  4  +  1  +  2  +  3  +  4  +  1  +  2  +  3  +  4  +  1  +  2  +  3  +  4  +  



E|3--3--3--3--3--3--3--3--3--3--3--3--3--3--3--3--3--3--3--3--3--3--3--3--3--3--3--3--3--3--3-----|
B|0--0--0--0--0--0--0--0--0--0--0--0--0--0--0--0--1--1--1--1--1--1--1--1--1--1--1--1--1--1--1-----|
G|0--0--0--0--0--0--0--0--0--0--0--0--0--0--0--0--2--2--2--2--2--2--2--2--2--2--2--2--2--2--2-----|
D|0--0--0--0--0--0--0--0--0--0--0--0--0--0--0--0--2--2--2--2--2--2--2--2--2--2--2--2--2--2--2--9--|
A|2--2--2--2--2--2--2--2--2--2--2--2--2--2--2--2--------------------------------------------------|
E|------------------------------------------------------------------------------------------------|
  1  +  2  +  3  +  4  +  1  +  2  +  3  +  4  +  1  +  2  +  3  +  4  +  1  +  2  +  3  +  4  +  


[Chorus/Outro]

Guitar 1 (Albert)

E|------------------------------------------------------------------------------------------------|
B|12-12-12-12-12-12-12-12-12-12-12-12-12-12-12-12-12-12-12-12-12-12-12-12-12-12-12-12-12-12-12-12-|
G|12-12-12-12-12-12-12-12-12-12-12-12-12-12-12-12-12-12-12-12-12-12-12-12-12-12-12-12-12-12-12-12-|
D|12-12-12-12-12-12-12-12-12-12-12-12-12-12-12-12-12-12-12-12-12-12-12-12-12-12-12-12-12-12-12-12-|
A|------------------------------------------------------------------------------------------------|
E|------------------------------------------------------------------------------------------------|
  1  +  2  +  3  +  4  +  1  +  2  +  3  +  4  +  1  +  2  +  3  +  4  +  1  +  2  +  3  +  4  +  



E|------------------------------------------------------------------------------------------------|
B|12-12-12-12-12-12-12-12-12-12-12-12-12-12-12-12-12-12-12-12-12-12-12-12-12-12-12-12-12-12-12-12-|
G|12-12-12-12-12-12-12-12-12-12-12-12-12-12-12-12-12-12-12-12-12-12-12-12-12-12-12-12-12-12-12-12-|
D|12-12-12-12-12-12-12-12-12-12-12-12-12-12-12-12-12-12-12-12-12-12-12-12-12-12-12-12-12-12-12-12-|
A|------------------------------------------------------------------------------------------------|
E|------------------------------------------------------------------------------------------------|
  1  +  2  +  3  +  4  +  1  +  2  +  3  +  4  +  1  +  2  +  3  +  4  +  1  +  2  +  3  +  4  +  



E|------------------------------------------------------------------------------------------------|
B|12-12-12-12-12-12-12-12-12-12-12-12-12-12-12-12-12-12-12-12-12-12-12-12-12-12-12-12-12-12-12-12-|
G|12-12-12-12-12-12-12-12-12-12-12-12-12-12-12-12-12-12-12-12-12-12-12-12-12-12-12-12-12-12-12-12-|
D|12-12-12-12-12-12-12-12-12-12-12-12-12-12-12-12-12-12-12-12-12-12-12-12-12-12-12-12-12-12-12-12-|
A|------------------------------------------------------------------------------------------------|
E|------------------------------------------------------------------------------------------------|
  1  +  2  +  3  +  4  +  1  +  2  +  3  +  4  +  1  +  2  +  3  +  4  +  1  +  2  +  3  +  4  +  



E|------------------------------------------------------------------------------------------------|
B|12-12-12-12-12-12-12-12-12-12-12-12-12-12-12-12-12-12-12-12-12-12-12-12-12-12-12----------------|
G|12-12-12-12-12-12-12-12-12-12-12-12-12-12-12-12-12-12-12-12-12-12-12-12-12-12-12----------------|
D|12-12-12-12-12-12-12-12-12-12-12-12-12-12-12-12-12-12-12-12-12-12-12-12-12-12-12----------------|
A|------------------------------------------------------------------------------------------------|
E|------------------------------------------------------------------------------------------------|
  1  +  2  +  3  +  4  +  1  +  2  +  3  +  4  +  1  +  2  +  3  +  4  +  1  +  2  +  3  +  4  +  



Guitar 2 (Nick)

E|------------------------------------------------------------------------------------------------|
B|------------------------------------------------------------------------------------------------|
G|------------------------------------------------------------------------------------------------|
D|12----9--10----9-----9--12----9--10----9--------9-----------------------9-----------------------|
A|---------------------------------------------10-------10-12----10----10-------10-12----10-------|
E|------------------------------------------------------------------------------------------------|
  1  +  2  +  3  +  4  +  1  +  2  +  3  +  4  +  1  +  2  +  3  +  4  +  1  +  2  +  3  +  4  +  
 


E|------------------------------------------------------------------------------------------------|
B|------------------------------------------------------------------------------------------------|
G|------------------------------------------------------------------------------------------------|
D|12----9--10----9-----9--12----9--10----9--------9-----------------------9-----------------------|
A|---------------------------------------------10-------10-12----10----10-------10-12----10-------|
E|------------------------------------------------------------------------------------------------|
  1  +  2  +  3  +  4  +  1  +  2  +  3  +  4  +  1  +  2  +  3  +  4  +  1  +  2  +  3  +  4  +  



E|------------------------------------------------------------------------------------------------|
B|------------------------------------------------------------------------------------------------|
G|------------------------------------------------------------------------------------------------|
D|12----9--10----9-----9--12----9--10----9--------9-----------------------9-----------------------|
A|---------------------------------------------10-------10-12----10----10-------10-12----10-------|
E|------------------------------------------------------------------------------------------------|
  1  +  2  +  3  +  4  +  1  +  2  +  3  +  4  +  1  +  2  +  3  +  4  +  1  +  2  +  3  +  4  +  



E|------------------------------------------------------------------------------------------------|
B|------------------------------------------------------------------------------------------------|
G|------------------------------------------------------------------------------------------------|
D|12----9--10----9-----9--12----9--10----9--------9-----------------------9-----10\---------------|
A|---------------------------------------------10-------10-12----10----10-------------------------|
E|------------------------------------------------------------------------------------------------|
  1  +  2  +  3  +  4  +  1  +  2  +  3  +  4  +  1  +  2  +  3  +  4  +  1  +  2  +  3  +  4  +



************************************

|s   slide
|*   palm mute
|~   let ring
|/   slide out upwards
|\   slide out downwards

************************************

            
            
Suggest correction
Creating personal tab
Creating personal tab
You can edit any tab online and save it as your Personal.

You can edit, replace or remove any tab part or add personal notes – all changes will be seen only by you.

Personal tabs can be accessed anytime from any device, even offline.
Learn more »
comments
print report bad tab
12 comments total. Showing first comments.
0 reply
partyonwayne 10 Feb 23, 2006 01:09 PM

AHHHHHHHHH FINALLY A REAL TAB OF THIS SONG


you're the best

0 reply
guitar_dude11 10 Mar 01, 2006 03:02 AM

brilliant, really brilliant

0 reply
hengler 114 Jun 20, 2006 07:52 AM

Great tab

guest
You may want to rate the tab now too:
select rating
Wanna post a correction for this tab? Suggest correction