Oops, an error
Loading. Please wait.

Heat In A Cage Bass Tab

1,205 views 3 this week
no commentswrite comment
1 2 3 4 5
accurate
x 1
add to favorites
launch autoscroll
font size
0
reset
guitar tuner
Tab Pro tools
  • play this tab
  • loop segment
  • change instrument
  • show fretboard
  • metronome
Autoscroll
slow
fast
+/-
esc
set tempo
stop
Contributor
Difficulty
Tuning
novice
D A D G B E
Intro
|--------------------|--------------------|-------------------|-----------------|
|--------------------|--------------------|-------------------|-----------------|
|-3-3-3-3-6-3--------|-3-3-3-3------------|-3-3-3-6-3---------|-3-3-3-----------|
|---------------6----|-----------6-3-6----|--------------6----|--------6-3-6----|

|---------------------|---------------------|---------------------|------------------|
|---6-6-6-6-6-6-6-6---|---3-3-3-3-3-3-3-3---|---------------------|------------------|
|---------------------|---------------------|----3-3-3-3-6-3------|-3-3-3-3----------|
|---------------------|---------------------|----------------6----|-----------6-3-6--|

|--------------------|--------------------|-------------------|-----------------|
|--------------------|--------------------|-------------------|-----------------|
|----3-3-3-3-6-3-----|---3-3-3-3----------|---3-3-3-6-3-------|-3-3-3-----------|
|---------------6----|-----------6-3-6----|--------------6----|--------6-3-6----|


Verse
|---------------------|---------------------|---------------------|---------------------|
|---------------------|---------------------|---------------------|---------------------|
|---3-3-3-3-3-3-3-3---|---3-3-3-3-3-3-3-3---|---------------------|---6-6-6-6-6-6-6-6---|
|---------------------|---------------------|---6-6-6-6-6-6-6-6---|---------------------|  x4

|---------------------|---------------------|---------------------|---------------------|
|---------------------|---------------------|---------------------|---------------------|
|---3-3-3-3-3-3-3-3---|---------------------|---6-6-6-6-6-6-6-6---|---6-6-6-6-6-6-6-6---|
|---------------------|---6-6-6-6-6-6-6-6---|---------------------|---------------------|


Chorus
|--------------------|--------------------|-------------------|-----------------|
|--------------------|--------------------|-------------------|-----------------|
|----3-3-3-3-6-3-----|---3-3-3-3----------|---3-3-3-6-3-------|-3-3-3-----------|
|----------------6---|-----------6-3-6----|--------------6----|---------6-3-6---|

|---------------------|---------------------|---------------------|------------------|
|---6-6-6-6-6-6-6-6---|---3-3-3-3-3-3-3-3---|---------------------|------------------|
|---------------------|---------------------|----3-3-3-3-6-3------|-3-3-3-3----------|
|---------------------|---------------------|----------------6----|-----------6-3-6--|

|--------------------|--------------------|-------------------|-------------------|
|--------------------|--------------------|-------------------|-------------------|
|----3-3-3-3-6-3-----|---3-3-3-3----------|---3-3-3-6-3-------|---3-3-3-3-3-3-3---|
|----------------6---|-----------6-3-6----|--------------6----|-------------------|

Bridge	
|-------------|-------------|-------------|------------|-----------|
|-------------|-------------|-------------|------------|-----------|
|-3-----------|-------------|-------------|------------|-----------|
|-------------|-5-----------|-3-----------|-03---------|-03-6------|  x4

Outro
|--------------------|--------------------|-------------------|-------------------|
|--------------------|--------------------|-------------------|-------------------|
|----3-3-3-3-6-3-----|---3-3-3-3----------|---3-3-3-6-3-------|---3-3-3-----------|
|----------------6---|------------6-3-6---|---------------6---|----------6-3-6----|

|---------------------|---------------------|--------------------|---------------|
|---------------------|---------------------|--------------------|---------------|
|---3-3-3-3-3-3-3-3---|-3-------------------|--------------------|-6-------------|
|---------------------|---------------------|-6------------------|---------------|


Order:

Intro
Verse
Chorus
Verse
Bridge
Verse
Outro
comments
We did not receive enough feedback on this tab! Please rate:
print report bad tab
1 2 3 4 5
I want to post or [tab]
guest
You may want to rate the tab now too:
select rating
Please do not post tabs as comments. Select "correction" instead!