Oops, an error
Loading. Please wait.

Is This It Tab

version 6
version 6
2,228 views 3 this week
no commentswrite comment
1 2 3 4 5
please rate
add to favorites
launch autoscroll
font size
0
reset
how to read this tab
guitar tuner
Tab Pro tools
  • play this tab
  • loop segment
  • change instrument
  • show fretboard
  • metronome
Autoscroll
slow
fast
+/-
esc
set tempo
stop
Contributor
Difficulty
novice
Guitar 1 Nick Valensi
Guitar 2 Albert Hammond Jr.

Verse 1
Guitar 1

E|---5---5---5---5---5---5---5---5---6---6---6---6---6---6---6---6|
B|--6---6---5------6---6---5--------6---6---5-------6---6---5-----|
G|--------------7---------------7---------------7---------------7-|
D|----------------------------------------------------------------|
A|----------------------------------------------------------------|
E|----------------------------------------------------------------|x2

Chorus
Guitar 1

E|------------------------------------------------------------------|
B|---6---6---6---6---6---6---6---6---5---5---5---5---5---5---5---5--|
G|----7---7---7---7---7---7---7---7---7---7---7---7---7---7---7---7-|
D|------------------------------------------------------------------|
A|------------------------------------------------------------------|
E|------------------------------------------------------------------|x2

Guitar 2

E|----------------------------------------------------------------------------|
B|----------------------------------------------------------------------------|
G|--10-10-10-10-10-10-10-10-10-10-10-10-10-10-10-10-5-5-5-5-5-5-5-5-5-5-5-5-5-|
D|--10-10-10-10-10-10-10-10-10-10-10-10-10-10-10-10-5-5-5-5-5-5-5-5-5-5-5-5-5-|
A|--8--8--8--8--8--8--8--8--8--8--8--8--8--8--8--8--3-3-3-3-3-3-3-3-3-3-3-3-3-|
E|----------------------------------------------------------------------------|

--------|
--------|
-5-5-5--|
-5-5-5--|
-3-3-3--|x2

Verse 2
Guitar 1 & 2

E|---5---5---5---5---5---5---5---5---6---6---6---6---6---6---6---6|
B|--6---6---5------6---6---5--------6---6---5-------6---6---5-----|
G|--------------7---------------7---------------7---------------7-|
D|----------------------------------------------------------------|
A|----------------------------------------------------------------|
E|----------------------------------------------------------------|x2

Bridge
Guitar 1

E|----8--8--8--8--8--8--8--8--8--8--8--8--8--8--8--8--8--8--8--8--8--8--8--8--|
B|----8--8--8--8--8--8--8--8--8--8--8--8--8--8--8--8--10-10-10-10-10-10-10-10-|
G|----------------------------------------------------------------------------|
D|----------------------------------------------------------------------------|
A|----------------------------------------------------------------------------|
E|----------------------------------------------------------------------------|

--8--8--8--8--8--8--8--8--8--8--8--8--8--8--8--8--8--8--8--8--8--8--8--8--8--|
--10-10-10-10-10-10-10-10-8--8--8--8--8--8--8--8--8--8--8--8--8--8--8--10-10-|
-----------------------------------------------------------------------------|
-----------------------------------------------------------------------------|
-----------------------------------------------------------------------------|
-----------------------------------------------------------------------------|

--8--8--8--8--8--8--8--8--8--8--8--8--8--8--8--8--8--8--8--8--8--8--8--8--8--|
--10-10-10-10-10-10-10-10-10-10-10-10-10-10-8--8--8--8--8--8--8--8--8--8--8--|
-----------------------------------------------------------------------------|
-----------------------------------------------------------------------------|
-----------------------------------------------------------------------------|
-----------------------------------------------------------------------------|

--8--8--8--8--8--|
--8--8--8--8--8--|
-----------------|
-----------------|
-----------------|
-----------------|

Guitar 2

E|----------------------------------------------------------------------------|
B|----------------------------------------------------------------------------|
G|--10-10-10-10-10-10-10-10-10-10-10-10-10-10-10-10-5-5-5-5-5-5-5-5-5-5-5-5-5-|
D|--10-10-10-10-10-10-10-10-10-10-10-10-10-10-10-10-5-5-5-5-5-5-5-5-5-5-5-5-5-|
A|--8--8--8--8--8--8--8--8--8--8--8--8--8--8--8--8--3-3-3-3-3-3-3-3-3-3-3-3-3-|
E|----------------------------------------------------------------------------|

--------|
--------|
-5-5-5--|
-5-5-5--|
-3-3-3--|

Chorus
Guitar 1

E|------------------------------------------------------------------|
B|---6---6---6---6---6---6---6---6---5---5---5---5---5---5---5---5--|
G|----7---7---7---7---7---7---7---7---7---7---7---7---7---7---7---7-|
D|------------------------------------------------------------------|
A|------------------------------------------------------------------|
E|------------------------------------------------------------------|x2

Guitar 2

E|----------------------------------------------------------------------------|
B|----------------------------------------------------------------------------|
G|--10-10-10-10-10-10-10-10-10-10-10-10-10-10-10-10-5-5-5-5-5-5-5-5-5-5-5-5-5-|
D|--10-10-10-10-10-10-10-10-10-10-10-10-10-10-10-10-5-5-5-5-5-5-5-5-5-5-5-5-5-|
A|--8--8--8--8--8--8--8--8--8--8--8--8--8--8--8--8--3-3-3-3-3-3-3-3-3-3-3-3-3-|
E|----------------------------------------------------------------------------|

--------|
--------|
-5-5-5--|
-5-5-5--|
-3-3-3--|x2

Interlude

Guitar 1

E|---5---5---5---5---5---5---5---5---6---6---6---6---6---6---6---6|
B|--6---6---5------6---6---5--------6---6---5-------6---6---5-----|
G|--------------7---------------7---------------7---------------7-|
D|----------------------------------------------------------------|
A|----------------------------------------------------------------|
E|----------------------------------------------------------------|x2

Verse 3
Guitar 1 & 2

E|---5---5---5---5---5---5---5---5---6---6---6---6---6---6---6---6|
B|--6---6---5------6---6---5--------6---6---5-------6---6---5-----|
G|--------------7---------------7---------------7---------------7-|
D|----------------------------------------------------------------|
A|----------------------------------------------------------------|
E|----------------------------------------------------------------|x2

End

E|--6--6--6--6--6--6--6--6--|
B|--6--6--6--6--6--6--6--6--|
G|--------------------------|
D|--------------------------|
A|--------------------------|
E|--------------------------|
comments
We did not receive enough feedback on this tab! Please rate:
print report bad tab
1 2 3 4 5
I want to post or [tab]
guest
You may want to rate the tab now too:
select rating
Please do not post tabs as comments. Select "correction" instead!