Oops, an error
Loading. Please wait.

Is This It Tab

version 7
version 7
598 views 6 this week
no commentswrite comment
1 2 3 4 5
please rate
add to favorites
launch autoscroll
font size
0
reset
how to read this tab
guitar tuner
Tab Pro tools
  • play this tab
  • loop segment
  • change instrument
  • show fretboard
  • metronome
Autoscroll
slow
fast
+/-
esc
set tempo
stop
Contributor
Difficulty
intermediate
Off their debut album Is This It (2000)
Great song, great band, great album

Intro/Verse 1:
|------------------------------------------------|
|------10----10---10---10----10----10---10---10--|
|---10----10----9----7----10----10----9----7-----|
|------------------------------------------------|
|------------------------------------------------|
|------------------------------------------------|

|------------------------------------------------|
|------11----11---11---11----11----11---11---11--|
|---10----10----9----7----10----10----9----7-----|
|------------------------------------------------|
|------------------------------------------------|
|------------------------------------------------|

Chorus:
 Gtr. 1
  F                              C
|-------------------------|    |-8--8--8--8--8--8--8--8--|
|-10-10-10-10-10-10-10-10-|    |-8--8--8--8--8--8--8--8--|
|-10-10-10-10-10-10-10-10-|x2  |-9--9--9--9--9--9--9--9--|x2
|-10-10-10-10-10-10-10-10-|    |-10-10-10-10-10-10-10-10-|
|-8--8--8--8--8--8--8--8--|    |-10-10-10-10-10-10-10-10-|
|-------------------------|    |-8--8--8--8--8--8--8--8--|
|Gtr. 2
|-----------------------------------|--------------------------------|
|---6---6---6---6---6---6---6---6---|5---5---5---5---5---5---5---5---|
|-----7---7---7---7---7---7---7---7-|--7---7---7---7---7---7---7---7-|
|-----------------------------------|--------------------------------|
|-----------------------------------|--------------------------------|
|-----------------------------------|--------------------------------|
|Bass:
|-----------------------------------|--------------------------------|
|-----------------------------------|--------------------------------|
|-----------------------------------|3-3-3-3-3-3-3-3-3-3-3-3-3-3-3-3-|
|---1-1-1-1-1-1-1-1-1-1-1-1-1-1-1-1-|--------------------------------|

Verse 2:
Gtr. 2 part is the same as Verse 1
 Bass:
|------------------------------------------------|
|---------------2-3-5----------------------2-----|
|-------0----------------------0-------5-3-------|
|---1-1---1--1-------------1-1---1--1------------|

|--------------------------------------0-2-3-------|
|-------0-------2-3-5----------0-------------------|
|---1-1---1--1-------------1-1---1--1--------------|
|--------------------------------------------------|

Bridge:
 Gtr. 1
|-8--8--8--8--8--8--8--8--|    |-------------------------|
|-8--8--8--8--8--8--8--8--|    |-10-10-10-10-10-10-10-10-|
|-9--9--9--9--9--9--9--9--|x2  |-10-10-10-10-10-10-10-10-|x2
|-10-10-10-10-10-10-10-10-|    |-10-10-10-10-10-10-10-10-|
|-10-10-10-10-10-10-10-10-|    |-8--8--8--8--8--8--8--8--|
|-8--8--8--8--8--8--8--8--|    |-------------------------|
|Bass:
|-------------------------|    |---------------------------|
|-------------------------|x2  |---------------------------|
|-3--3-----3--------------|    |---------------------------|
|-------------------------|    |--1--1-----1---------------|

Chorus 2:
Bass
|-------------------------------------|-------------------------------------|
|-------------------------------------|-------------------------------------|
|------------------------------1----0-|---3---------------------------------|
|---1--1----1-----1--1----1-----------|-------------------------------------|

Outro:
Gtr. 2
|-----------------------------|
|---11-11-11-11-11--11---11---|
|---10-10-10-10-10--10---10---|
|----8--8--8--8--8---8----8---|
|-----------------------------|
|-----------------------------|
| Bass
|-----------------------------|
|-----------------------------|
|-----------------------------|
|----6--6--6--6--6---6----6---|

 I recorded the entire song with guitar and bass parts on garageband yesterday and 
this sounded  right

Credit to the other people who tabbed this because I used some of their tab as the base for this,
but made some alterations to the bits I thought were wrong, like the chorus, the bridge 
and the bass part. Enjoy :)
comments
We did not receive enough feedback on this tab! Please rate:
print report bad tab
1 2 3 4 5
I want to post or [tab]
guest
You may want to rate the tab now too:
select rating
Please do not post tabs as comments. Select "correction" instead!