Oops, an error
Loading. Please wait.
We have an official Ize Of The World tab made by UG professional guitarists. Check out the tab »
×
81,878 views 60 this week
9 commentsread comments
1 2 3 4 5
x 37
add to favorites
×
Save as Personal and add changes to this tab that will be seen only by you. Learn more ›
×
You can save this tab as Personal to edit and correct it or add notes. All changes will be seen only by you. Learn more »
launch autoscroll
font size
0
reset
how to read this tab
guitar tuner
edit
Autoscroll
slow
fast
+/-
esc
set tempo
stop
Author
Difficulty
intermediate
Band:  The Strokes
Album: First Impressions of Earth
Song:  Ize of the World
Copyright (c)  (RCA Records) (2006)
Transcribed By: Cameron Hustis
Email:          Wavejet@aol.com


Guitar 1 - Nick Valensi
Guitar 2 - Albert Hammond



[Intro]

Guitar 1
2x
|-------------------|------------------|
|-------------------|------------------|
|-----6------9------|-----2------------|
|-6-6----9-9----8-8-|-2-2---5--5-4--4--|
|-4------7------6---|-0-----3----2-----|
|-------------------|------------------|

2x
|-------------------|------------------|
|-------------------|------------------|
|-----6------9------|-----2------------|
|-6-6----9-9----8-8-|-2-2---6--6-4--4--|
|-4------7------6---|-0-----4----2-----|
|-------------------|------------------|



[Verse]

 Guitar 1
2x
|------------------|------------------|
|-5-------7--------|-4--------5-------|
|-6-------6--------|-4--------4-------|
|-6-------7--------|-6--------6-------|
|------------------|------------------|
|------------------|------------------|
|
|Guitar 2
|------------------|------------------|
|-5-------7--------|-4--------5-------|
|-6-------6--------|-4--------4-------|
|-6-------7--------|-6--------6-------|
|------------------|------------------|
|------------------|------------------|

2x
|------------------|------------------|
|-5-5-----7--------|-4------4-5-------|
|-6-6-----6--------|-4------4-4-------|
|-6-6-----7--------|-6------6-6-------|
|------------------|------------------|
|------------------|------------------|
|
|
|------------------|------------------|
|-5-------7--------|-4--------5-------|
|-6-------6--------|-4--------4-------|
|-6-------7--------|-6--------6-------|
|------------------|------------------|
|------------------|------------------|

2x
|------------------|------------------|------------------|------------------|
|-5-5-5-7---7-7-7--|-4-4-4-5---5-5-5--|-5-5-5-7---7-7-7--|-4-4-4-5---5-5-5--|
|-6-6-6-6---6-6-6--|-4-4-4-4---4-4-4--|-6-6-6-6---6-6-6--|-4-4-4-4---4-4-4--|
|-6-6-6-7---7-7-7--|-6-6-6-6---6-6-6--|-6-6-6-7---7-7-7--|-6-6-6-6---6-6-6--|
|------------------|------------------|------------------|------------------|
|------------------|------------------|------------------|------------------|
|
|
|-7-7-7-5---4------|-2-2-4-0---0------|-7-7-7-5---4------|-2-2-4-0---2------|
|-5-5-5-5---5------|-0-0-0-0---0------|-5-5-5-5---5------|-0-0-0-0---0------|
|------------------|------------------|------------------|------------------|
|------------------|------------------|------------------|------------------|
|------------------|------------------|------------------|------------------|
|------------------|------------------|------------------|------------------|


[Pre-Chorus]

|-12---------------|-11--------------|-9---------------|-12---------------|
|-10---------------|-12--------------|-10--------------|-12-----14-12-----|
|-11---------------|-13--------------|-9---------------|-13----------14-13|
|------------------|-----------------|-----------------|------------------|
|------------------|-----------------|-----------------|------------------|
|------------------|-----------------|-----------------|------------------|
|
|
|------------------|-----------------|-----------------|------------------|
|-------2----------|-------4---------|-------5---------|-/9---------------|
|---2-----2--------|---4-----4-------|---6-----6-------|-/9---------------|
|-4---4------------|-6---6-----------|-7---7-----------|------------------|
|------------------|-----------------|-----------------|------------------|
|------------------|-----------------|-----------------|------------------|


|-9----------------|-7---------------|-----------------|------------------|
|-10---------------|-9---------------|-----------------|------------------|
|-11---------------|-8---------------|-6-6-6-6-6-6-6-6-|-6-6-6-6-6-6-6-6--|
|------------------|-----------------|-----------------|------------------|
|------------------|-----------------|-----------------|------------------|
|------------------|-----------------|-----------------|------------------|
|
|
|------------------|-----------------|-----------------|------------------|
|-------2----------|-------4---------|-9-9-9-9-9-9-9-9-|-9-9-9-9-9-9-9-9--|
|---2-----2--------|---4-----4-------|-----------------|------------------|
|-4---4------------|-6---6-----------|-6-6-6-6-6-6-6-6-|-6-6-6-6-6-6-6-6--|
|------------------|-----------------|-----------------|------------------|
|------------------|-----------------|-----------------|------------------|


[Chorus]

2x
|-7-------7--------|-7-------7-------|-11------11-------|-11------11-------|
|---9---9---9---9--|---9---9---9---9-|---12--12--12--12-|---12--12--12--12-|
|-----9-------9----|-----9-------9---|-----13------13---|-----13------13---|
|------------------|-----------------|------------------|------------------|
|------------------|-----------------|------------------|------------------|
|------------------|-----------------|------------------|------------------|
|
|
|------------------|-----------------|------------------|------------------|
|------------------|-----------------|------------------|------------------|
|------------------|-----------------|------------------|------------------|
|-2----------------|-----------------|---------6--------|------------------|
|-2----------------|----------7-9-7--|--6\-----6--------|------------------|
|-0----------------|-----------------|---------4--------|------------------|


|-16------16-------|-16------16-------|-11------11-------|-11------11-------|
|---17--17--17--17-|---17--17--17--17-|---12--12--12--12-|---12--12--12--12-|
|-----16------16---|-----16------16---|-----13------13---|-----13------13---|
|------------------|------------------|------------------|------------------|
|------------------|------------------|------------------|------------------|
|------------------|------------------|------------------|------------------|
|
|
|------------------|------------------|------------------|------------------|
|------------------|------------------|------------------|------------------|
|------------------|------------------|------------------|------------------|
|-2----------------|------------------|---------6--------|------------------|
|-2----------------|-----------7-9-7--|--6\-----6--------|------------------|
|-0----------------|------------------|---------4--------|------------------|


|-7-------7--------|-7-------7-------|-11------11-------|-11------11-------|
|---9---9---9---9--|---9---9---9---9-|---12--12--12--12-|---12--12--12--12-|
|-----9-------9----|-----9-------9---|-----13------13---|-----13------13---|
|------------------|-----------------|------------------|------------------|
|------------------|-----------------|------------------|------------------|
|------------------|-----------------|------------------|------------------|
|
|
|------------------|-----------------|------------------|------------------|
|------------------|-----------------|------------------|------------------|
|------------------|-----------------|------------------|------------------|
|-2----------------|-----------------|---------6--------|------------------|
|-2----------------|----------7-9-7--|--6\-----6--------|------------------|
|-0----------------|-----------------|---------4--------|------------------|



|-16------16-------|-16------16-------|-16------16-------|-16------16-------|
|---17--17--17--17-|---17--17--17--17-|---16--16--16--16-|---16--16--16--16-|
|-----16------16---|-----16------16---|-----16------16---|-----16------16---|
|------------------|------------------|------------------|------------------|
|------------------|------------------|------------------|------------------|
|------------------|------------------|------------------|------------------|
|
|
|-4-4-4-4-4-4-4-4--|-4-4-4-4-4-4-4-4--|-4-4-4-4-4-4-4-4--|-4-4-4-4-4-4-4-4--|
|-5-5-5-5-5-5-5-5--|-5-5-5-5-5-5-5-5--|-4-4-4-4-4-4-4-4--|-4-4-4-4-4-4-4-4--|
|------------------|------------------|------------------|------------------|
|------------------|------------------|------------------|------------------|
|------------------|------------------|------------------|------------------|
|------------------|------------------|------------------|------------------|



|-16------16-------|-16------16--16^(17)-|-16------16-------|-16------16-------|
|---17--17--17--17-|---17--17--17--------|---16--16--16--16-|---16--16--16--16-|
|-----16------16---|-----16--------------|-----16------16---|-----16------16---|
|------------------|---------------------|------------------|------------------|
|------------------|---------------------|------------------|------------------|
|------------------|---------------------|------------------|------------------|
|
|
|-4-4-4-4-4-4-4-4--|--4-4-4-4-4-4-4-4----|-4-4-4-4-4-4-4-4--|-4-4-4-4-4-4-4-4--|
|-5-5-5-5-5-5-5-5--|--5-5-5-5-5-5-5-5----|-4-4-4-4-4-4-4-4--|-4-4-4-4-4-4-4-4--|
|------------------|---------------------|------------------|------------------|
|------------------|---------------------|------------------|------------------|
|------------------|---------------------|------------------|------------------|
|------------------|---------------------|------------------|------------------|



|-7-------7--------|-7-------7-------|-11------11-------|-11------11-------|
|---9---9---9---9--|---9---9---9---9-|---12--12--12--12-|---12--12--12--12-|
|-----9-------9----|-----9-------9---|-----13------13---|-----13------13---|
|------------------|-----------------|------------------|------------------|
|------------------|-----------------|------------------|------------------|
|------------------|-----------------|------------------|------------------|
|
|
|-4-4-4-4-4-4-4-4--|-4-4-4-4-4-4-4-4-|-4-4-4-4-4-4-4-4--|-4-4-4-4-4-4-4-4--|
|-5-5-5-5-5-5-5-5--|-5-5-5-5-5-5-5-5-|-4-4-4-4-4-4-4-4--|-4-4-4-4-4-4-4-4--|
|------------------|-----------------|------------------|------------------|
|------------------|-----------------|------------------|------------------|
|------------------|-----------------|------------------|------------------|
|------------------|-----------------|------------------|------------------|


|-16------16-------|-16------16-------|-11------11-------|-11------11-------|
|---17--17--17--17-|---17--17--17--17-|---12--12--12--12-|---12--12--12--12-|
|-----16------16---|-----16------16---|-----13------13---|-----13------13---|
|------------------|------------------|------------------|------------------|
|------------------|------------------|------------------|------------------|
|------------------|------------------|------------------|------------------|
|
|
|-4-4-4-4-4-4-4-4--|-4-4-4-4-4-4-4-4--|-4-4-4-4-4-4-4-4--|-5-5-5-5-4-4-2-2--|
|-5-5-5-5-5-5-5-5--|-5-5-5-5-5-5-5-5--|-4-4-4-4-4-4-4-4--|-4-4-4-4-4-4-4-4--|
|------------------|------------------|------------------|------------------|
|------------------|------------------|------------------|------------------|
|------------------|------------------|------------------|------------------|
|------------------|------------------|------------------|------------------|


[Solo]

 Guitar 1
|------4-----------|----5------5-----|------7----7----|----7------7------|
|----5----5--------|-------7-------7-|----7----7------|-------9-------9--|
|-6----------------|-6---------------|--8----8--------|-9----------------|
|------------------|-----------------|----------------|------------------|
|------------------|-----------------|----------------|------------------|
|------------------|-----------------|----------------|------------------|
|
|Guitar 2
|------------------|-----------------|----------------|------------------|
|------------------|-----------------|----------------|------------------|
|------------------|-----------------|----------------|------------------|
|------------------|-11/13-11--------|-9-----7--------|------------------|
|-11---10-11--12-11|-----------------|----------10----|-7----9--10--11---|
|------------------|-----------------|----------------|------------------|


|------4-----------|----5------5-----|------2----2----|----4------4------|
|----5----5--------|-------7-------7-|----4----4------|-------5-------5--|
|-6----------------|-6---------------|--4----4--------|-4----------------|
|------------------|-----------------|----------------|------------------|
|------------------|-----------------|----------------|------------------|
|------------------|-----------------|----------------|------------------|
|
|
|------------------|-----------------|----------------|------------------|
|------------------|-----------------|----------------|------------------|
|------------------|-----------------|----------------|------------------|
|------------------|-----------------|----------------|-------/7---6-----|
|-11----11-9-------|-----------------|----------4-5-6-|-5--6-------------|
|-----9------12-11-|-9---------------|-4--5-6-7-------|------------------|


|------4---------|----5------5-----|------7----7----|----7------7------|
|----5----5------|-------7-------7-|----7----7------|-------9-------9--|
|-6--------------|-6---------------|--8----8--------|-9----------------|
|----------------|-----------------|----------------|------------------|
|----------------|-----------------|----------------|------------------|
|----------------|-----------------|----------------|------------------|
|
|
|----------------|-----------------|----------------|------------------|
|----------------|-----------------|----------------|------------------|
|-9-----9-8-6----|-----------------|----------4-6-7-|-8--7-8--/14--13--|
|-----6--------9-|-7-----------6---|-4----6-7-------|------------------|
|----------------|-----------------|----------------|------------------|
|----------------|-----------------|----------------|------------------|


|------9-----9-----|----9------9-----|------7-----7------|-----7-----7------|
|----9-----9-------|-10----10-----10-|----7-----7--------|--------9-----9---|
|--9-----9---------|-----------------|--8-----8----------|--9---------------|
|------------------|-----------------|-------------------|------------------|
|------------------|-----------------|-------------------|------------------|
|------------------|-----------------|-------------------|------------------|
|
|
|/12----12-11-9----|-----------------|---------7-9-10-11-|-10-11---/17--16--|
|-----9---------12-|-10---------9----|-7--9-10-----------|------------------|
|------------------|-----------------|-------------------|------------------|
|------------------|-----------------|-------------------|------------------|
|------------------|-----------------|-------------------|------------------|
|------------------|-----------------|-------------------|------------------|


|-----4-----5-------|-----2-----4-----|-----4-----5-------|-----2-----4------|
|---5-----7-----7---|---4-----5----5--|---5-----7-----7---|---4-----5-5------|
|-6-----6-----------|-4-----4---------|-6-----6-----------|-4-----4---4------|
|-------------------|-----------------|-------------------|------------------|
|-------------------|-----------------|-------------------|------------------|
|-------------------|-----------------|-------------------|------------------|
|
|
|-----19--17--16-14-|-------------14--|-----19--17--16-14-|------------------|
|-17----17----------|---16---17-------|-17----17----------|---16--14---------|
|-------------------|-----------------|-------------------|-----------16-----|
|-------------------|-----------------|-------------------|------------------|
|-------------------|-----------------|-------------------|------------------|
|-------------------|-----------------|-------------------|------------------|



2nd Chorus

2x
|-7-------7--------|-7-------7-------|-11------11-------|-11------11-------|
|---9---9---9---9--|---9---9---9---9-|---12--12--12--12-|---12--12--12--12-|
|-----9-------9----|-----9-------9---|-----13------13---|-----13------13---|
|------------------|-----------------|------------------|------------------|
|------------------|-----------------|------------------|------------------|
|------------------|-----------------|------------------|------------------|
|
|
|------------------|-----------------|------------------|------------------|
|------------------|-----------------|------------------|------------------|
|------------------|-----------------|------------------|------------------|
|-2----------------|-----------------|---------6--------|------------------|
|-2----------------|----------7-9-7--|--6\-----6--------|------------------|
|-0----------------|-----------------|---------4--------|------------------|


|-16------16-------|-16------16-------|-11------11-------|-11------11-------|
|---17--17--17--17-|---17--17--17--17-|---12--12--12--12-|---12--12--12--12-|
|-----16------16---|-----16------16---|-----13------13---|-----13------13---|
|------------------|------------------|------------------|------------------|
|------------------|------------------|------------------|------------------|
|------------------|------------------|------------------|------------------|
|
|
|------------------|------------------|------------------|------------------|
|------------------|------------------|------------------|------------------|
|------------------|------------------|------------------|------------------|
|-2----------------|------------------|---------6--------|------------------|
|-2----------------|-----------7-9-7--|--6\-----6--------|------------------|
|-0----------------|------------------|---------4--------|------------------|


|-7-------7--------|-7-------7-------|-11------11-------|-11------11-------|
|---9---9---9---9--|---9---9---9---9-|---12--12--12--12-|---12--12--12--12-|
|-----9-------9----|-----9-------9---|-----13------13---|-----13------13---|
|------------------|-----------------|------------------|------------------|
|------------------|-----------------|------------------|------------------|
|------------------|-----------------|------------------|------------------|
|
|
|------------------|-----------------|------------------|------------------|
|------------------|-----------------|------------------|------------------|
|------------------|-----------------|------------------|------------------|
|-2----------------|-----------------|---------6--------|------------------|
|-2----------------|----------7-9-7--|--6\-----6--------|------------------|
|-0----------------|-----------------|---------4--------|------------------|



|-16------16-------|-16------16-------|-16------16-------|-16------16-------|
|---17--17--17--17-|---17--17--17--17-|---16--16--16--16-|---16--16--16--16-|
|-----16------16---|-----16------16---|-----16------16---|-----16------16---|
|------------------|------------------|------------------|------------------|
|------------------|------------------|------------------|------------------|
|------------------|------------------|------------------|------------------|
|
|
|-4-4-4-4-4-4-4-4--|-4-4-4-4-4-4-4-4--|-4-4-4-4-4-4-4-4--|-4-4-4-4-4-4-4-4--|
|-5-5-5-5-5-5-5-5--|-5-5-5-5-5-5-5-5--|-4-4-4-4-4-4-4-4--|-4-4-4-4-4-4-4-4--|
|------------------|------------------|------------------|------------------|
|------------------|------------------|------------------|------------------|
|------------------|------------------|------------------|------------------|
|------------------|------------------|------------------|------------------|


|-16------16-------|-16------16--16^(17)|-16------16-------|-16------16-------|
|---17--17--17--17-|---17--17--17-------|---16--16--16--16-|---16--16--16--16-|
|-----16------16---|-----16-------------|-----16------16---|-----16------16---|
|------------------|--------------------|------------------|------------------|
|------------------|--------------------|------------------|------------------|
|------------------|--------------------|------------------|------------------|
|
|
|-4-4-4-4-4-4-4-4--|-4-4-4-4-4-4-4-4----|-4-4-4-4-4-4-4-4--|-4-4-4-4-4-4-4-4--|
|-5-5-5-5-5-5-5-5--|-5-5-5-5-5-5-5-5----|-4-4-4-4-4-4-4-4--|-4-4-4-4-4-4-4-4--|
|------------------|--------------------|------------------|------------------|
|------------------|--------------------|------------------|------------------|
|------------------|--------------------|------------------|------------------|
|------------------|--------------------|------------------|------------------|



|-16~-16~-16~-16~-|-16~-16~-16~-16~-|-16~-16~-16~-16~-|-16~-16~-16~-16~-|
|-----------------|-----------------|-----------------|-----------------|
|-----------------|-----------------|-----------------|-----------------|
|-----------------|-----------------|-----------------|-----------------|
|-----------------|-----------------|-----------------|-----------------|
|-----------------|-----------------|-----------------|-----------------|
|
|
|-4-4-4-4-4-4-4-4-|-4-4-4-4-4-4-4-4-|-4-4-4-4-4-4-4-4-|-4-4-4-4-4-4-4-4-|
|-5-5-5-5-5-5-5-5-|-5-5-5-5-5-5-5-5-|-4-4-4-4-4-4-4-4-|-4-4-4-4-4-4-4-4-|
|-----------------|-----------------|-----------------|-----------------|
|-----------------|-----------------|-----------------|-----------------|
|-----------------|-----------------|-----------------|-----------------|
|-----------------|-----------------|-----------------|-----------------|


|-16~-16~-16~-16~-|-16~-16~-16~-16~-|-16^(17)--16^(17)-|-16^(17)16^(17)-14-|
|-----------------|-----------------|------------------|-------------------|
|-----------------|-----------------|------------------|-------------------|
|-----------------|-----------------|------------------|-------------------|
|-----------------|-----------------|------------------|-------------------|
|-----------------|-----------------|------------------|-------------------|
|
|
|-4-4-4-4-4-4-4-4-|-4-4-4-4-4-4-4-4-|-4-4-4-4-4-4-4-4--|-4-4-4-4-4-4-4-4---|
|-5-5-5-5-5-5-5-5-|-5-5-5-5-5-5-5-5-|-4-4-4-4-4-4-4-4--|-4-4-4-4-4-4-4-4---|
|-----------------|-----------------|------------------|-------------------|
|-----------------|-----------------|------------------|-------------------|
|-----------------|-----------------|------------------|-------------------|
|-----------------|-----------------|------------------|-------------------|


|-16------16-------|-16------16-------|-11------11-------|-11------11-------|
|---17--17--17--17-|---17--17--17--17-|---12--12--12--12-|---12--12--12--12-|
|-----16------16---|-----16------16---|-----13------13---|-----13------13---|
|------------------|------------------|------------------|------------------|
|------------------|------------------|------------------|------------------|
|------------------|------------------|------------------|------------------|
|
|
|-4-4-4-4-4-4-4-4--|-4-4-4-4-4-4-4-4--|-4-4-4-4-4-4-4-4--|-4-4-4-4-4-4-4-4--|
|-5-5-5-5-5-5-5-5--|-5-5-5-5-5-5-5-5--|-4-4-4-4-4-4-4-4--|-4-4-4-4-4-4-4-4--|
|------------------|------------------|------------------|------------------|
|------------------|------------------|------------------|------------------|
|------------------|------------------|------------------|------------------|
|------------------|------------------|------------------|------------------|


|-7-------7--------|-7-------7-------|-11------11-------|-11------11-------|
|---9---9---9---9--|---9---9---9---9-|---12--12--12--12-|---12--12--12--12-|
|-----9-------9----|-----9-------9---|-----13------13---|-----13------13---|
|------------------|-----------------|------------------|------------------|
|------------------|-----------------|------------------|------------------|
|------------------|-----------------|------------------|------------------|
|
|
|-4-4-4-4-4-4-4-4--|-4-4-4-4-4-4-4-4-|-4-4-4-4-4-4-4-4--|-4-4-4-4-4-4-4-4--|
|-5-5-5-5-5-5-5-5--|-5-5-5-5-5-5-5-5-|-4-4-4-4-4-4-4-4--|-4-4-4-4-4-4-4-4--|
|------------------|-----------------|------------------|------------------|
|------------------|-----------------|------------------|------------------|
|------------------|-----------------|------------------|------------------|
|------------------|-----------------|------------------|------------------|



************************************

| /  Slide up
| \  Slide down
| ~  Vibrato

************************************
Suggest correction
Creating personal tab
Creating personal tab
You can edit any tab online and save it as your Personal.

You can edit, replace or remove any tab part or add personal notes – all changes will be seen only by you.

Personal tabs can be accessed anytime from any device, even offline.
Learn more »
comments
print report bad tab
9 comments total. Showing first comments.
0 reply
t!tom 10 Mar 24, 2006 07:31 PM

wow!u tabbed every song?
long live strokes!

0 reply
vanhalenrule 88 Aug 08, 2006 10:33 PM

brilliant

0 reply
Codebreaker19 31 Sep 24, 2006 05:21 PM

dude, so nice man, very nice

guest
You may want to rate the tab now too:
select rating
Wanna post a correction for this tab? Suggest correction