Oops, an error
Loading. Please wait.
We have an official Ize Of The World tab made by UG professional guitarists. Check out the tab »
×
3,416 views 9 this week
2 commentsread comments
1 2 3 4 5
x 3
add to favorites
×
Save as Personal and add changes to this tab that will be seen only by you. Learn more ›
×
You can save this tab as Personal to edit and correct it or add notes. All changes will be seen only by you. Learn more »
launch autoscroll
font size
0
reset
guitar tuner
edit
Autoscroll
slow
fast
+/-
esc
set tempo
stop
Difficulty
intermediate
Ize Of The World
The Strokes
Nikolai Fraiture


Intro :
 
G----------------------|
D-------2--------------|
A-4---2---6-------3--2-|
E---4-------5-0-3------|                         
                                            X2
G----------------------|
D-------2--------------|
A-4---2---6-------4--2-|                                               
E---4-------5-0-3------|X2   

Verse
‘I think i know what you mean,...’
G------------------|------------|
D------------------|------------|                                   
A-7---9/11-9--7-\6-|-6---6-7--6-|
E---9--------------|---7--------|

G------------------|---------------|
D------------------|-------6--9-6--|
A-7---9/11-9--7-\6-|-6---6---------|
E---9--------------|---7-----------|

Pre-Chorus
‘You’re sad but you smile...’
G-----------------------------------------|
D-----------------------------------------|
A-----------------------------------------|
E-t22222222-t44444444-t55555555-t00000000-|

‘your eyes don’t change...’
G---------------------------------------|
D---------------------------------------|
A---------------------------------------|
E-t22222222-t44444444-t5555555555555555-|

Chorus
"An egg to fertilIZE..."
G----------------------------------------|
D----------------------------------------|
A----------------------------------------|
E-t0000000000000000-12\t4444444444444444-|1st and 3rd time

D-----------------------------------------------|
G-----------------------------------------------|
A----------------------------------2---2---2----|
E-t0000000000000000-12\t44444444-4---4---4------|2nd and 4th time

Keep doing the same riff as above just no more slides from 12, no tremolo picking and no 
parts that are like 2nd and 4th.

Then after you do that as instructed for 2 measures go back to tremolo picking until the solo.





Guitar’s solo
D-----------------------------------------|
G-----------------------------------------|
A-t44444444-----------t22222222-----------|
E-----------t22222222-----------t00000000-|X4

G---------------------------|
D-------t4444-------t22-t11-|
A-t4444-------t2222---------|
E---------------------------|

G-----------------------|
D-------t4444-------2~~-|
A-t4444-------t2222-----|
E-----------------------|

Verse

Pre-Chorus

Chorus

"Enemies to Neutralize.."
G-------------------------------------|
D-------------------t6666666666666666-|
A-t7777777777777777-------------------|
E-------------------------------------| end of song

            
            
Suggest correction
Creating personal tab
Creating personal tab
You can edit any tab online and save it as your Personal.

You can edit, replace or remove any tab part or add personal notes – all changes will be seen only by you.

Personal tabs can be accessed anytime from any device, even offline.
Learn more »
Give kudos to tab author, rate the tab!
1 2 3 4 5
comments
print report bad tab
2 comments total.
0 reply
obesepanda 10 May 15, 2013 07:59 PM

G|------1---------------------------1--------------------|
D|---2----4--2---1----4--2-1------2---4-2--1----4-6/7-6-4-|
A|-4---------------2----------2-4------------2----------| x4
D|-----------------------------------------------------|

Much easier to play it this way but otherwise good tab

0 reply
cbliam99 10 Aug 12, 2015 09:22 AM

Lack of accuracy. If you listen to the studio version closely, the verse is quite different from what is here. The fingering is also quite awkward.

guest
Wanna post a correction for this tab? Suggest correction