Oops, an error
Loading. Please wait.
We have an official Last Night tab made by UG professional guitarists. Check out the tab »
×
24,017 views 3 this week
3 commentsread comments
1 2 3 4 5
x 8
add to favorites
×
Save as Personal and add changes to this tab that will be seen only by you. Learn more ›
×
You can save this tab as Personal to edit and correct it or add notes. All changes will be seen only by you. Learn more »
launch autoscroll
font size
0
reset
guitar tuner
backing track
0:00
0:00
edit
Autoscroll
slow
fast
+/-
esc
set tempo
stop
Author
Difficulty
intermediate
Last Nite - The Strokes
Tabbed By : Son Pham    
e-mail: luffyzster@gmail.com

Tuning:Standard

[Intro] Join in at :19
G|---------------------------------------------|
D|---------------------------------------------|  X 2
A|-8-8-8-8-8-8-8-8-10-10-10-10-10-10-10-10-----|
E|---------------------------------------------|

[Verse]
G|---------------------------------------------------------|
D|---------------------------------------------------------|
A|-3---3-33---3---3-33---5---5-55---5/10~---10-7---7-5-----|
E|---------------------------------------------------------|

G|---------------------------------------------------------|
D|---------------------------------------------------------|
A|-3---3-33---3---3-33---3---5---5-55---5/10~---10-7---7-5-|
E|--------------------3h5----------------------------------|

G|---------------------------------------------------------|
D|---------------------------------------------------------|
A|-3---3-33---3---3-33---3---5---5-55---5/10~---10-7---7-5-|
E|---------3h5--------3h5----------------------------------|

[Chorus]
G|----------------------------------------------|
D|----------------------------------------------|
A|-8-8-8-8-8-8-8-8-10-10-10-10-10-10-10-10------|
E|----------------------------------------------|

[Verse]
G|----------------------------------------------------------|
D|----------------------------------------------------------|
A|-3---3-33---3---3-33---5---5-55---5/10~---10-7---7-5------|
E|----------------------------------------------------------|

G|----------------------------------------------------------|
D|----------------------------------------------------------|
A|-3---3-33---3---3-33---3---5---5-55---5/10~---10-7---7-5--|
E|---------3h5--------3h5-----------------------------------|

[Solo][jоin in at 1:48]
G|----------------------------------------------|
D|----------------------------------------------|  X 2
A|-8-8-8-8-8-8-8-8-10-10-10-10-10-10-10-10------|
E|----------------------------------------------|

G|----------------------------------------------------|
D|----------------------------------------------------|
A|-333333333333333333---------------------------------|
E|-------------------3333333333333333111111111111111--|

[Chorus]
G|----------------------------------------------|
D|----------------------------------------------|  X 4
A|-8-8-8-8-8-8-8-8-10-10-10-10-10-10-10-10------|
E|----------------------------------------------|

[Verse]
G|-----------------------------------------------------------|
D|-----------------------------------------------------------|
A|-3---3-33---3---3-33---5---5-55---5/10~---10-7---7-5-------|
E|-----------------------------------------------------------|

G|---------------------------------------------------------------------|
D|---------------------------------------------------------------------|
A|-3---3-33---3---3-33---3---5---5-55---5/10~---10-7---7-5------3~~----|
E|---------3h5--------3h5----------------------------------------------|

[Outro]
G|----------------------------------------------|
D|----------------------------------------------|(X2)
A|-8-8-8-8-8-8-8-8-10-10-10-10-10-10-10-10------|
E|----------------------------------------------|

************************************

| /  slide up
| \  slide down
| h  hammer-on
| p  pull-off
| ~  vibrato
| +  harmonic
| x  Mute note

************************************

            
            
Suggest correction
Creating personal tab
Creating personal tab
You can edit any tab online and save it as your Personal.

You can edit, replace or remove any tab part or add personal notes – all changes will be seen only by you.

Personal tabs can be accessed anytime from any device, even offline.
Learn more »
comments
print report bad tab
3 comments total.
+2 reply
[SCT] Bassist 73 Feb 22, 2010 09:13 AM

sounds good, but i think the second half of the solo is different. I'm pretty sure it's

G|----------------------------------------------------------|
D|----------------------------------------------------------|
A|-3-3-3-3-3-3-3-3-------------------------/1010101010101010|
E|-----------------1-1-1-1-1-1-1-1-33333333-----------------|


other than that, I play it exactly the same.

+1 reply
Jordo141 483 Dec 07, 2013 08:26 AM

Totally right^^^

0 reply
biggerboys 10 Dec 29, 2015 03:36 AM

Nikolai always plays this:

G|----------------------------------------------------------|
D|-----------------------------------------55555555/--------|
A|-3-3-3-3-3-3-3-3------------------------------------------|
E|-----------------1-1-1-1-1-1-1-1-33333333-----------------|

Once he puts his pinky on the 5th fret, D string he just then slides up and comes back to the chorus bit.

guest
You may want to rate the tab now too:
select rating
Wanna post a correction for this tab? Suggest correction