Oops, an error
Loading. Please wait.
We have an official Last Night tab made by UG professional guitarists. Check out the tab »
×
3,782 views 18 this week
1 commentread comment
1 2 3 4 5
x 5
add to favorites
×
Save as Personal and add changes to this tab that will be seen only by you. Learn more ›
×
You can save this tab as Personal to edit and correct it or add notes. All changes will be seen only by you. Learn more »
launch autoscroll
font size
0
reset
guitar tuner
backing track
0:00
0:00
edit
Autoscroll
slow
fast
+/-
esc
set tempo
stop
Author
Difficulty
----------------------------------------------------------------------------
                             Last Nite - The Strokes
----------------------------------------------------------------------------

Tabbed By : zakk137

e-mail: zkarpenko@comcast.net


This song was tabbed already, but it had a few mistakes so i decided to correct it. I'm 
positive this is absolutely 100% correct. All I've done today is listen to this song and 
play it.




Tuning: Standard

Intro   Join in at :19
G|---------------------------------------------|
D|---------------------------------------------|  x 2
A|-8-8-8-8-8-8-8-8-10-10-10-10-10-10-10-10-----|
E|---------------------------------------------|

Verse
G|---------------------------------------------------------|
D|---------------------------------------------------------|
A|-3---3-33---3---3-33---5---5-55---5/10~---10-7---7-5-----|
E|---------------------------------------------------------|

G|---------------------------------------------------------|
D|---------------------------------------------------------|
A|-3---3-33---3---3-33---3---5---5-55---5/10~---10-7---7-5-|
E|--------------------3h5----------------------------------|

G|---------------------------------------------------------|
D|---------------------------------------------------------|
A|-3---3-33---3---3-33---3---5---5-55---5/10~---10-7---7-5-|
E|---------3h5--------3h5----------------------------------|


Chorus
G|----------------------------------------------|
D|----------------------------------------------|  x 4
A|-8-8-8-8-8-8-8-8-10-10-10-10-10-10-10-10------|
E|----------------------------------------------|

Verse
G|---------------------------------------------------------|
D|---------------------------------------------------------|
A|-3---3-33---3---3-33---3---5---5-55---5/10~---10-7---7-5-|
E|--------------------3h5----------------------------------|

G|---------------------------------------------------------|
D|---------------------------------------------------------|
A|-3---3-33---3---3-33---3---5---5-55---5/10~---10-7---7-5-|
E|--------------------3h5----------------------------------|


Solo          Join in at 1:48
G|----------------------------------------------|
D|----------------------------------------------|  x 2
A|-8-8-8-8-8-8-8-8-10-10-10-10-10-10-10-10------|
E|----------------------------------------------|

G|----------------------------------------------------|
D|----------------------------------------------------|
A|-333333333333333333---------------------------------|
E|-------------------3333333333333333111111111111111--|


Chorus
G|----------------------------------------------|
D|----------------------------------------------|  x 3
A|-8-8-8-8-8-8-8-8-10-10-10-10-10-10-10-10------|
E|----------------------------------------------|

G|----------------------------------------------|
D|----------------------------------------------|
A|-8-8-8-8-8-8-8-8-10-10-10-10-10---------------|
E|----------------------------------------------|


Verse
G|-----------------------------------------------------------|
D|-----------------------------------------------------------|
A|-3---3-33---3---3-33---5---5-55---5/10~---10-7---7-5-------|
E|-----------------------------------------------------------|

G|-----------------------------------------------------------|
D|-----------------------------------------------------------|
A|-3---3-33---3---3-33---3---5---5-55---5/10~---10-7---7-5---|
E|---------3h5--------3h5------------------------------------|

G|----------------------|
D|----------------------|
A|-333333333333333333---|
E|----------------------|




Outro
G|----------------------------------------------|
D|----------------------------------------------|   x 2
A|-8-8-8-8-8-8-8-8-10-10-10-10-10-10-10-10------|
E|----------------------------------------------|



| /  slide up
| \  slide down
| h  hammer-on
| p  pull-off
| ~  vibrato
| +  harmonic
| x  Mute note
============================================================================

            
            
Suggest correction
Creating personal tab
Creating personal tab
You can edit any tab online and save it as your Personal.

You can edit, replace or remove any tab part or add personal notes – all changes will be seen only by you.

Personal tabs can be accessed anytime from any device, even offline.
Learn more »
comments
print report bad tab
1 comment total.
0 reply
maidenlionel 60 Jan 13, 2015 02:01 PM

I think the pre-chorus/end of the solo has the 3 and the 1 on the E string mixed up, apart from that it's the best tab for this song that I've seen.

guest
You may want to rate the tab now too:
select rating
Wanna post a correction for this tab? Suggest correction