Oops, an error
Loading. Please wait.
We have an official Last Night tab made by UG professional guitarists. Check out the tab »
×

Last Night tab

190 views 3 this week
1 commentread comment
1 2 3 4 5
1 last vote to show rating
add to favorites
×
Save as Personal and add changes to this tab that will be seen only by you. Learn more ›
×
You can save this tab as Personal to edit and correct it or add notes. All changes will be seen only by you. Learn more »
launch autoscroll
font size
0
reset
how to read this tab
guitar tuner
backing track
0:00
0:00
edit
Autoscroll
slow
fast
+/-
esc
set tempo
stop
Author
Difficulty
About this tab version
This version has both first and second guitar parts accounted for, plus the correct tablature for the solo. Was this info helpful? Yes No
LAST NITE
                                            THE STROKES
                                            IS THIS IT?

I've been trying to find a decent version of this tab but couldn't seem to find one so I thought I'd tab it
out myself. Everything is accounted for; both guitar sections and the correct solo. Have fun with this one.
If you have any suggestions or comments please leave them below.


TUNING: E Standard = E B G D A E


[Intro]
GUITAR 1:
e|-------------------------|-------------------------|-------------------------|-------------------------|
B|-------------------------|-------------------------|-------------------------|-------------------------|
G|-5--5--5--5--5--5--5--5--|-5--5--5--5--5--5--5--5--|-5--5--5--5--5--5--5--5--|-5--5--5--5--5--5--5--5--|
D|-x--x--x--x--x--x--x--x--|-x--x--x--x--x--x--x--x--|-x--x--x--x--x--x--x--x--|-x--x--x--x--x--x--x--x--|
A|-3--3--3--3--3--3--3--3--|-3--3--3--3--3--3--3--3--|-3--3--3--3--3--3--3--3--|-3--3--3--3--3--3--3--3--|
E|-------------------------|-------------------------|-------------------------|-------------------------|

THEN BOTH GUITARS COME IN (0:09):
GUITAR 1:
e|-------------------------|-------------------------|-------------------------|-------------------------|
B|-------------------------|-------------------------|-------------------------|-------------------------|
G|-5--5--5--5--5--5--5--5--|-5--5--5--5--5--5--5--5--|-5--5--5--5--5--5--5--5--|-5--5--5--5--5--5--5--5--|
D|-x--x--x--x--x--x--x--x--|-x--x--x--x--x--x--x--x--|-x--x--x--x--x--x--x--x--|-x--x--x--x--x--x--x--x--|
A|-3--3--3--3--3--3--3--3--|-3--3--3--3--3--3--3--3--|-3--3--3--3--3--3--3--3--|-3--3--3--3--3--3--3--3--|
E|-------------------------|-------------------------|-------------------------|-------------------------|
GUITAR 2:
e|-------------------------|-------------------------|-------------------------|-------------------------|
B|-------------------------|-------------------------|-------------------------|-------------------------|
G|-------------------------|-------------------------|-------------------------|-------------------------|
D|-10-10-10-10-10-10-10-10-|-10-10-10-10-10-10-10-10-|-10-10-10-10-10-10-10-10-|-10-10-10-10-10-10-10-10-|
A|-8--8--8--8--8--8--8--8--|-10-10-10-10-10-10-10-10-|-8--8--8--8--8--8--8--8--|-10-10-10-10-10-10-10-10-|
E|-8--8--8--8--8--8--8--8--|-8--8--8--8--8--8--8--8--|-8--8--8--8--8--8--8--8--|-8--8--8--8--8--8--8--8--|

BASS COMES IN (0:19):
GUITAR 1:
e|-------------------------|-------------------------|-------------------------|-------------------------|
B|-------------------------|-------------------------|-------------------------|-------------------------|
G|-5--5--5--5--5--5--5--5--|-5--5--5--5--5--5--5--5--|-5--5--5--5--5--5--5--5--|-5--5--5--5--5--5--5--5--|
D|-x--x--x--x--x--x--x--x--|-x--x--x--x--x--x--x--x--|-x--x--x--x--x--x--x--x--|-x--x--x--x--x--x--x--x--|
A|-3--3--3--3--3--3--3--3--|-3--3--3--3--3--3--3--3--|-3--3--3--3--3--3--3--3--|-3--3--3--3--3--3--3--3--|
E|-------------------------|-------------------------|-------------------------|-------------------------|
GUITAR 2:
e|-------------------------|-------------------------|-------------------------|-------------------------|
B|-------------------------|-------------------------|-------------------------|-------------------------|
G|-------------------------|-------------------------|-------------------------|-------------------------|
D|-10-10-10-10-10-10-10-10-|-10-10-10-10-10-10-10-10-|-10-10-10-10-10-10-10-10-|-10-10-10-10-10-10-10-10-|
A|-8--8--8--8--8--8--8--8--|-10-10-10-10-10-10-10-10-|-8--8--8--8--8--8--8--8--|-10-10-10-10-10-10-10-10-|
E|-8--8--8--8--8--8--8--8--|-8--8--8--8--8--8--8--8--|-8--8--8--8--8--8--8--8--|-8--8--8--8--8--8--8--8--|



[VERSE 1:] PLAY THIS 3 TIMES
GUITAR 1:
e|-------------------------|-------------------------|-------------------------|-------------------------|
B|-5--5--5--5--5-5-5-5-5-5-|-5--5--5--5--5-5-5-5-5-5-|-10-10-10-10-10-10-10-10-|-12-12-12-12-12-12-12-12-|
G|-5--5--5--5--5-5-5-5-5-5-|-5--5--5--5--5-5-5-5-5-5-|-10-10-10-10-10-10-10-10-|-12-12-12-12-12-12-12-12-|
D|-5--5--5--5--5-5-5-5-5-5-|-5--5--5--5--5-5-5-5-5-5-|-10-10-10-10-10-10-10-10-|-12-12-12-12-12-12-12-12-|
A|-3--3--3--3--3-3-3-3-3-3-|-3--3--3--3--3-3-3-3-3-3-|-8--8--8--8--8--8--8--8--|-10-10-10-10-10-10-10-10-|
E|-------------------------|-------------------------|-------------------------|-------------------------|
GUITAR 2:
e|----10----10----10----10-|----10----10----10----10-|----1-----1-----1-----1--|----3-----3-----3-----3--|
B|----10----10----10----10-|----10----10----10----10-|----1-----1-----1-----1--|----3-----3-----3-----3--|
G|----8-----8-----8-----8--|----8-----8-----8-----8--|----2-----2-----2-----2--|----4-----4-----4-----4--|
D|-------------------------|-------------------------|-------------------------|-------------------------|
A|-------------------------|-------------------------|-------------------------|-------------------------|
E|-------------------------|-------------------------|-------------------------|-------------------------|

GUITAR 1:
e|-------------------------|
B|-12-12-12-12-12-12-12-12-|
G|-12-12-12-12-12-12-12-12-|
D|-12-12-12-12-12-12-12-12-|
A|-10-10-10-10-10-10-10-10-|
E|-------------------------|
GUITAR 2:
e|----3-----3-----3-----3--|
B|----3-----3-----3-----3--|
G|----4-----4-----4-----4--|
D|-------------------------|
A|-------------------------|
E|-------------------------|



[Bridge]
GUITAR 1:
e|-------------------------|-------------------------|-------------------------|-------------------------|
B|-------------------------|-------------------------|-------------------------|-------------------------|
G|-5--5--5--5--5--5--5--5--|-5--5--5--5--5--5--5--5--|-5--5--5--5--5--5--5--5--|-5--5--5--5--5--5--5--5--|
D|-x--x--x--x--x--x--x--x--|-x--x--x--x--x--x--x--x--|-x--x--x--x--x--x--x--x--|-x--x--x--x--x--x--x--x--|
A|-3--3--3--3--3--3--3--3--|-3--3--3--3--3--3--3--3--|-3--3--3--3--3--3--3--3--|-3--3--3--3--3--3--3--3--|
E|-------------------------|-------------------------|-------------------------|-------------------------|
GUITAR 2:
e|-------------------------|-------------------------|-------------------------|-------------------------|
B|-------------------------|-------------------------|-------------------------|-------------------------|
G|-------------------------|-------------------------|-------------------------|-------------------------|
D|-10-10-10-10-10-10-10-10-|-10-10-10-10-10-10-10-10-|-10-10-10-10-10-10-10-10-|-10-10-10-10-10-10-10-10-|
A|-8--8--8--8--8--8--8--8--|-10-10-10-10-10-10-10-10-|-8--8--8--8--8--8--8--8--|-10-10-10-10-10-10-10-10-|
E|-8--8--8--8--8--8--8--8--|-8--8--8--8--8--8--8--8--|-8--8--8--8--8--8--8--8--|-8--8--8--8--8--8--8--8--|

GUITAR 1:
e|-------------------------|-------------------------|-------------------------|-------------------------|
B|-------------------------|-------------------------|-------------------------|-------------------------|
G|-5--5--5--5--5--5--5--5--|-5--5--5--5--5--5--5--5--|-5--5--5--5--5--5--5--5--|-5--5--5--5--5--5--5--5--|
D|-x--x--x--x--x--x--x--x--|-x--x--x--x--x--x--x--x--|-x--x--x--x--x--x--x--x--|-x--x--x--x--x--x--x--x--|
A|-3--3--3--3--3--3--3--3--|-3--3--3--3--3--3--3--3--|-3--3--3--3--3--3--3--3--|-3--3--3--3--3--3--3--3--|
E|-------------------------|-------------------------|-------------------------|-------------------------|
GUITAR 2:
e|-------------------------|-------------------------|-------------------------|-------------------------|
B|-------------------------|-------------------------|-------------------------|-------------------------|
G|-------------------------|-------------------------|-------------------------|-------------------------|
D|-10-10-10-10-10-10-10-10-|-10-10-10-10-10-10-10-10-|-10-10-10-10-10-10-10-10-|-10-10-10-10-10-10-10-10-|
A|-8--8--8--8--8--8--8--8--|-10-10-10-10-10-10-10-10-|-8--8--8--8--8--8--8--8--|-10-10-10-10-10-10-10-10-|
E|-8--8--8--8--8--8--8--8--|-8--8--8--8--8--8--8--8--|-8--8--8--8--8--8--8--8--|-8--8--8--8--8--8--8--8--|



[VERSE 2:] PLAY THIS 2 TIMES
GUITAR 1:
e|-------------------------|-------------------------|-------------------------|-------------------------|
B|-5--5--5--5--5-5-5-5-5-5-|-5--5--5--5--5-5-5-5-5-5-|-10-10-10-10-10-10-10-10-|-12-12-12-12-12-12-12-12-|
G|-5--5--5--5--5-5-5-5-5-5-|-5--5--5--5--5-5-5-5-5-5-|-10-10-10-10-10-10-10-10-|-12-12-12-12-12-12-12-12-|
D|-5--5--5--5--5-5-5-5-5-5-|-5--5--5--5--5-5-5-5-5-5-|-10-10-10-10-10-10-10-10-|-12-12-12-12-12-12-12-12-|
A|-3--3--3--3--3-3-3-3-3-3-|-3--3--3--3--3-3-3-3-3-3-|-8--8--8--8--8--8--8--8--|-10-10-10-10-10-10-10-10-|
E|-------------------------|-------------------------|-------------------------|-------------------------|
GUITAR 2:
e|----10----10----10----10-|----10----10----10----10-|----1-----1-----1-----1--|----3-----3-----3-----3--|
B|----10----10----10----10-|----10----10----10----10-|----1-----1-----1-----1--|----3-----3-----3-----3--|
G|----8-----8-----8-----8--|----8-----8-----8-----8--|----2-----2-----2-----2--|----4-----4-----4-----4--|
D|-------------------------|-------------------------|-------------------------|-------------------------|
A|-------------------------|-------------------------|-------------------------|-------------------------|
E|-------------------------|-------------------------|-------------------------|-------------------------|
 
GUITAR 1:
e|-------------------------|
B|-12-12-12-12-12-12-12-12-|
G|-12-12-12-12-12-12-12-12-|
D|-12-12-12-12-12-12-12-12-|
A|-10-10-10-10-10-10-10-10-|
E|-------------------------|
GUITAR 2:
e|----3-----3-----3-----3--|
B|----3-----3-----3-----3--|
G|----4-----4-----4-----4--|
D|-------------------------|
A|-------------------------|
E|-------------------------|



[Bridge]
GUITAR 1:
e|-------------------------|-------------------------|-13-13-13-13-13-13-13-13-|-13-13-13-13-13-13-13-13-|
B|-------------------------|-------------------------|-------------------------|-------------------------|
G|-5--5--5--5--5--5--5--5--|-5--5--5--5--5--5--5--5--|-10-10-10-10-10-10-10-10-|-10-10-10-10-10-10-10-10-|
D|-x--x--x--x--x--x--x--x--|-x--x--x--x--x--x--x--x--|-------------------------|-------------------------|
A|-3--3--3--3--3--3--3--3--|-3--3--3--3--3--3--3--3--|-------------------------|-------------------------|
E|-------------------------|-------------------------|-------------------------|-------------------------|
GUITAR 2:
e|-------------------------|-------------------------|-------------------------|-------------------------|
B|-------------------------|-------------------------|-------------------------|-------------------------|
G|-------------------------|-------------------------|-------------------------|-------------------------|
D|-10-10-10-10-10-10-10-10-|-10-10-10-10-10-10-10-10-|-10-10-10-10-10-10-10-10-|-10-10-10-10-10-10-10-10-|
A|-x--x--x--x--x--x--x--x--|-x--x--x--x--x--x--x--x--|-x--x--x--x--x--x--x--x--|-x--x--x--x--x--x--x--x--|
E|-8--8--8--8--8--8--8--8--|-8--8--8--8--8--8--8--8--|-8--8--8--8--8--8--8--8--|-8--8--8--8--8--8--8--8--|

GUITAR 1:
e|-13-13-13-13-13-13-13-13-|-13-13-13-13-13-13-13-13-|
B|-------------------------|-------------------------|
G|-10-10-10-10-10-10-10-10-|-10-10-10-10-10-10-10-10-|
D|-------------------------|-------------------------|
A|-------------------------|-------------------------|
E|-------------------------|-------------------------|
GUITAR 2:
e|-------------------------|-------------------------|
B|-------------------------|-------------------------|
G|-------------------------|-------------------------|
D|-10-10-10-10-10-10-10-10-|-10-10-10-10-10-10-10-10-|
A|-x--x--x--x--x--x--x--x--|-x--x--x--x--x--x--x--x--|
E|-8--8--8--8--8--8--8--8--|-8--8--8--8--8--8--8--8--|


[GUITAR SOLO:]
IMPROTRANT TO NOTE THAT THIS IS PLAYED BY THE SECOND GUITAR. WHILE THE SECOND GUITAR SOLOS, THE FIRST GUITAR
PLAYS CHORDS.
GUITAR 2:
e|-13b14~---13b14r-p11-----11~-13b14----13b14r-p11-----11-|----11----10----------8-8-------8-8---|
B|---------------------13--------------------------13--11-|-------10----8--11b13-----11b13-------|
G|--------------------------------------------------------|-10-----------------------------------|
D|--------------------------------------------------------|--------------------------------------|
A|--------------------------------------------------------|--------------------------------------|
E|--------------------------------------------------------|--------------------------------------|

e|----11----10----------8-8-------8-8----|----------------------|-8-8-8-8-8-8-8-8-8-8-8-8----10b-10b-10b-----|
B|-------10----8--11b13-----11b13-----11-|-8---8---8---8---8----|-8-8-8-8-8-8-8-8-8-8-8-8----11b-11b-11b-----|
G|-10------------------------------------|-8---8---8---8---8----|--------------------------------------------|
D|---------------------------------------|--10--10--10--10--10--|--------------------------------------------|
A|---------------------------------------|----------------------|--------------------------------------------|
E|---------------------------------------|----------------------|--------------------------------------------|

GUITAR 1 DURING THE SOLO:
e|-------------------------|-------------------------|-------------------------|-------------------------|
B|-5--5--5--5--5-5-5-5-5-5-|-5--5--5--5--5-5-5-5-5-5-|-10-10-10-10-10-10-10-10-|-10-10-10-10-10-10-10-10-|
G|-5--5--5--5--5-5-5-5-5-5-|-5--5--5--5--5-5-5-5-5-5-|-10-10-10-10-10-10-10-10-|-10-10-10-10-10-10-10-10-|
D|-5--5--5--5--5-5-5-5-5-5-|-5--5--5--5--5-5-5-5-5-5-|-10-10-10-10-10-10-10-10-|-10-10-10-10-10-10-10-10-|
A|-3--3--3--3--3-3-3-3-3-3-|-3--3--3--3--3-3-3-3-3-3-|-8--8--8--8--8--8--8--8--|-8--8--8--8--8--8--8--8--|
E|-------------------------|-------------------------|-------------------------|-------------------------|

e|-3--3--3--3--3-3-3-3-3-3-|-3--3--3--3--3-3-3-3-3-3-|
B|-3--3--3--3--3-3-3-3-3-3-|-3--3--3--3--3-3-3-3-3-3-|
G|-4--4--4--4--4-4-4-4-4-4-|-4--4--4--4--4-4-4-4-4-4-|
D|-5--5--5--5--5-5-5-5-5-5-|-5--5--5--5--5-5-5-5-5-5-|
A|-5--5--5--5--5-5-5-5-5-5-|-5--5--5--5--5-5-5-5-5-5-|
E|-3--3--3--3--3-3-3-3-3-3-|-3--3--3--3--3-3-3-3-3-3-|



[Bridge]
GUITAR 1:
e|-------------------------|-------------------------|-------------------------|-------------------------|
B|-------------------------|-------------------------|-------------------------|-------------------------|
G|-5--5--5--5--5--5--5--5--|-5--5--5--5--5--5--5--5--|-5--5--5--5--5--5--5--5--|-5--5--5--5--5--5--5--5--|
D|-x--x--x--x--x--x--x--x--|-x--x--x--x--x--x--x--x--|-x--x--x--x--x--x--x--x--|-x--x--x--x--x--x--x--x--|
A|-3--3--3--3--3--3--3--3--|-3--3--3--3--3--3--3--3--|-3--3--3--3--3--3--3--3--|-3--3--3--3--3--3--3--3--|
E|-------------------------|-------------------------|-------------------------|-------------------------|
GUITAR 2:
e|-------------------------|-------------------------|-------------------------|-------------------------|
B|-------------------------|-------------------------|-------------------------|-------------------------|
G|-------------------------|-------------------------|-------------------------|-------------------------|
D|-10-10-10-10-10-10-10-10-|-10-10-10-10-10-10-10-10-|-10-10-10-10-10-10-10-10-|-10-10-10-10-10-10-10-10-|
A|-8--8--8--8--8--8--8--8--|-10-10-10-10-10-10-10-10-|-8--8--8--8--8--8--8--8--|-10-10-10-10-10-10-10-10-|
E|-8--8--8--8--8--8--8--8--|-8--8--8--8--8--8--8--8--|-8--8--8--8--8--8--8--8--|-8--8--8--8--8--8--8--8--|

GUITAR 1:
e|-------------------------|-------------------------|-------------------------|-------------------------|
B|-------------------------|-------------------------|-------------------------|-------------------------|
G|-5--5--5--5--5--5--5--5--|-5--5--5--5--5--5--5--5--|-5--5--5--5--5--5--5--5--|-5--5--5--5--------------|
D|-x--x--x--x--x--x--x--x--|-x--x--x--x--x--x--x--x--|-x--x--x--x--x--x--x--x--|-x--x--x--x--------------|
A|-3--3--3--3--3--3--3--3--|-3--3--3--3--3--3--3--3--|-3--3--3--3--3--3--3--3--|-3--3--3--3--------------|
E|-------------------------|-------------------------|-------------------------|-------------------------|
GUITAR 2:
e|-------------------------|-------------------------|-------------------------|-------------------------|
B|-------------------------|-------------------------|-------------------------|-------------------------|
G|-------------------------|-------------------------|-------------------------|-------------------------|
D|-10-10-10-10-10-10-10-10-|-10-10-10-10-10-10-10-10-|-10-10-10-10-10-10-10-10-|-10-10-10-10-------------|
A|-8--8--8--8--8--8--8--8--|-10-10-10-10-10-10-10-10-|-8--8--8--8--8--8--8--8--|-10-10-10-10-------------|
E|-8--8--8--8--8--8--8--8--|-8--8--8--8--8--8--8--8--|-8--8--8--8--8--8--8--8--|-8--8--8--8--------------|


[VERSE 3:] PLAY THIS 2 TIMES
GUITAR 1:
e|-------------------------|-------------------------|-------------------------|-------------------------|
B|-5--5--5--5--5-5-5-5-5-5-|-5--5--5--5--5-5-5-5-5-5-|-10-10-10-10-10-10-10-10-|-12-12-12-12-12-12-12-12-|
G|-5--5--5--5--5-5-5-5-5-5-|-5--5--5--5--5-5-5-5-5-5-|-10-10-10-10-10-10-10-10-|-12-12-12-12-12-12-12-12-|
D|-5--5--5--5--5-5-5-5-5-5-|-5--5--5--5--5-5-5-5-5-5-|-10-10-10-10-10-10-10-10-|-12-12-12-12-12-12-12-12-|
A|-3--3--3--3--3-3-3-3-3-3-|-3--3--3--3--3-3-3-3-3-3-|-8--8--8--8--8--8--8--8--|-10-10-10-10-10-10-10-10-|
E|-------------------------|-------------------------|-------------------------|-------------------------|
GUITAR 2:
e|----10----10----10----10-|----10----10----10----10-|----1-----1-----1-----1--|----3-----3-----3-----3--|
B|----10----10----10----10-|----10----10----10----10-|----1-----1-----1-----1--|----3-----3-----3-----3--|
G|----8-----8-----8-----8--|----8-----8-----8-----8--|----2-----2-----2-----2--|----4-----4-----4-----4--|
D|-------------------------|-------------------------|-------------------------|-------------------------|
A|-------------------------|-------------------------|-------------------------|-------------------------|
E|-------------------------|-------------------------|-------------------------|-------------------------|
 
GUITAR 1:
e|-------------------------|
B|-12-12-12-12-12-12-12-12-|
G|-12-12-12-12-12-12-12-12-|
D|-12-12-12-12-12-12-12-12-|
A|-10-10-10-10-10-10-10-10-|
E|-------------------------|
GUITAR 2:
e|----3-----3-----3-----3--|
B|----3-----3-----3-----3--|
G|----4-----4-----4-----4--|
D|-------------------------|
A|-------------------------|
E|-------------------------|

THEN THE TAIL:
GUITAR 1:
e|-------------------------|-------------------------|
B|-5--5--5--5--5-5-5-5-5-5-|-5--5--5--5--5-5-5-5-5-5-|
G|-5--5--5--5--5-5-5-5-5-5-|-5--5--5--5--5-5-5-5-5-5-|
D|-5--5--5--5--5-5-5-5-5-5-|-5--5--5--5--5-5-5-5-5-5-|
A|-3--3--3--3--3-3-3-3-3-3-|-3--3--3--3--3-3-3-3-3-3-|
E|-------------------------|-------------------------|
GUITAR 2:
e|----10----10----10----10-|----10----10----10----10-|
B|----10----10----10----10-|----10----10----10----10-|
G|----8-----8-----8-----8--|----8-----8-----8-----8--|
D|-------------------------|-------------------------|
A|-------------------------|-------------------------|
E|-------------------------|-------------------------|



[Bridge]
GUITAR 1:
e|-------------------------|-------------------------|-------------------------|-------------------------|
B|-------------------------|-------------------------|-------------------------|-------------------------|
G|-5--5--5--5--5--5--5--5--|-5--5--5--5--5--5--5--5--|-5--5--5--5--5--5--5--5--|-5--5--5--5--5--5--5--5--|
D|-x--x--x--x--x--x--x--x--|-x--x--x--x--x--x--x--x--|-x--x--x--x--x--x--x--x--|-x--x--x--x--x--x--x--x--|
A|-3--3--3--3--3--3--3--3--|-3--3--3--3--3--3--3--3--|-3--3--3--3--3--3--3--3--|-3--3--3--3--3--3--3--3--|
E|-------------------------|-------------------------|-------------------------|-------------------------|
GUITAR 2:
e|-------------------------|-------------------------|-------------------------|-------------------------|
B|-------------------------|-------------------------|-------------------------|-------------------------|
G|-------------------------|-------------------------|-------------------------|-------------------------|
D|-10-10-10-10-10-10-10-10-|-10-10-10-10-10-10-10-10-|-10-10-10-10-10-10-10-10-|-10-10-10-10-10-10-10-10-|
A|-8--8--8--8--8--8--8--8--|-10-10-10-10-10-10-10-10-|-8--8--8--8--8--8--8--8--|-10-10-10-10-10-10-10-10-|
E|-8--8--8--8--8--8--8--8--|-8--8--8--8--8--8--8--8--|-8--8--8--8--8--8--8--8--|-8--8--8--8--8--8--8--8--|



[Outro]
e|-------------------------|-------------------------|----|
B|-------------------------|-------------------------|----|
G|-5--5--5--5--5--5--5--5--|-5--5--5--5--5--5--5--5--|-5--|
D|-x--x--x--x--x--x--x--x--|-x--x--x--x--x--x--x--x--|-x--|
A|-3--3--3--3--3--3--3--3--|-3--3--3--3--3--3--3--3--|-3--|
E|-------------------------|-------------------------|----|

THE END

*****************************
-Tablature Legend-

p   pull-off
b   bend
r   release bend
~   hold / vibrato
x   mute note

*****************************

            
            
Suggest correction
Creating personal tab
Creating personal tab
You can edit any tab online and save it as your Personal.

You can edit, replace or remove any tab part or add personal notes – all changes will be seen only by you.

Personal tabs can be accessed anytime from any device, even offline.
Learn more »
Give kudos to tab author, rate the tab!
1 2 3 4 5
comments
print report bad tab
1 comment total.
+1 reply
wearethehunger 10 May 17, 2017 01:15 AM

From all the covers I've watched, tabs I've tried, and have had listened to the song so many times, this one is the one that sounds 100%.

Good job, dude!

guest
You may want to rate the tab now too:
select rating
Wanna post a correction for this tab? Suggest correction