Oops, an error
Loading. Please wait.
We have an official Machu Picchu tab made by UG professional guitarists. Check out the tab »
×
4,075 views 75 this week
1 commentread comment
1 2 3 4 5
x 9
add to favorites
×
Save as Personal and add changes to this tab that will be seen only by you. Learn more ›
×
You can save this tab as Personal to edit and correct it or add notes. All changes will be seen only by you. Learn more »
launch autoscroll
font size
0
reset
how to read this tab
guitar tuner
backing track
0:00
0:00
edit
Autoscroll
slow
fast
+/-
esc
set tempo
stop
Author
Machu Picchu - The Strokes
Tabbed by: Cja317
Tuning: Standard

Guitar 1

[Intro/Verse 1]
e|-11-11---11-11---11-11---11-11-----13-13---13-13---13-13---13-13-----------|\
B|-11-11---11-11---11-11---11-11-----14-14---14-14---14-14---14-14-----------| \
G|-11-11---11-11---11-11---11-11-----13-13---13-13---13-13---13-13-----------|  \
D|---------------------------------------------------------------------------|   \
A|---------------------------------------------------------------------------|    \
E|---------------------------------------------------------------------------|     \
                                                                                     x2
e|-14-14---14-14---14-14---14-14-----13-13---13-13---11-11---11-11-----------|     /  
B|-16-16---16-16---16-16---16-16-----14-14---14-14---13-13---13-13-----------|    /    
G|-15-15---15-15---15-15---15-15-----13-13---13-13---13-13---13-13-----------|   /      
D|---------------------------------------------------------------------------|  /        
A|---------------------------------------------------------------------------| /          
E|---------------------------------------------------------------------------|/            
                                                                                            
e|-11-11---11-11---11-11---11-11-----13-13---13-13---13-13---13-13-----------|
B|-11-11---11-11---11-11---11-11-----14-14---14-14---14-14---14-14-----------| 
G|-11-11---11-11---11-11---11-11-----13-13---13-13---13-13---13-13-----------|  
D|---------------------------------------------------------------------------|   
A|---------------------------------------------------------------------------|    
E|---------------------------------------------------------------------------|     
                                                                                   
e|-14-14---14-14---14-14---14-14-----13-13---13------11>---------------------|       
B|-16-16---16-16---16-16---16-16-----14-14---14------13>---------------------|        
G|-15-15---15-15---15-15---15-15-----13-13---13------13>---------------------|         
D|---------------------------------------------------------------------------|          
A|---------------------------------------------------------------------------|           
E|---------------------------------------------------------------------------|        

e|--11-----11-----11-----11--11--11-----11-----11-----11--11-----------------|
B|--13-----13-----13-----13--13--12-----12-----12-----12--12-----------------|
G|--13-----13-----13-----13--13--13-----13-----13-----13--13-----------------|
D|--13-----13-----13-----13--13--13-----13-----13-----13--13-----------------|
A|--11-----11-----11-----11--11--11-----11-----11-----11--11-----------------|
E|---------------------------------------------------------------------------|

[Verse 1] (cont.)
e|-14-14---14-14---14-14---14-14-----13-13---13-13---13-13---13-13-----------|
B|-16-16---16-16---16-16---16-16-----14-14---14-14---14-14---14-14-----------|
G|-15-15---15-15---15-15---15-15-----13-13---13-13---13-13---13-13-----------|
D|---------------------------------------------------------------------------|
A|---------------------------------------------------------------------------|
E|---------------------------------------------------------------------------|

e|-11-11---11-11---11-11---11-11-----13-13---13-13---11-11---11-11-----------|
B|-11-11---11-11---11-11---11-11-----14-14---14-14---13-13---13-13-----------|
G|-11-11---11-11---11-11---11-11-----13-13---13-13---13-13---13-13-----------|
D|---------------------------------------------------------------------------|
A|---------------------------------------------------------------------------|
E|---------------------------------------------------------------------------|

e|-11-11---11-11---11-11---11-11-----13-13---13-13---13-13---13-13-----------|
B|-11-11---11-11---11-11---11-11-----14-14---14-14---14-14---14-14-----------| 
G|-11-11---11-11---11-11---11-11-----13-13---13-13---13-13---13-13-----------|  
D|---------------------------------------------------------------------------|   
A|---------------------------------------------------------------------------|    
E|---------------------------------------------------------------------------|     
                                                                                   
e|-14-14---14-14---14-14---14-14-----13-13---13------11>---------------------|       
B|-16-16---16-16---16-16---16-16-----14-14---14------13>---------------------|        
G|-15-15---15-15---15-15---15-15-----13-13---13------13>---------------------|         
D|---------------------------------------------------------------------------|          
A|---------------------------------------------------------------------------|           
E|---------------------------------------------------------------------------|        

e|--11-----11-----11-----11--11--11-----11-----11-----11--11-----------------|
B|--13-----13-----13-----13--13--12-----12-----12-----12--12-----------------|
G|--13-----13-----13-----13--13--13-----13-----13-----13--13-----------------|
D|--13-----13-----13-----13--13--13-----13-----13-----13--13-----------------|
A|--11-----11-----11-----11--11--11-----11-----11-----11--11-----------------|
E|---------------------------------------------------------------------------|

[Pre-Chorus]
e|-------2------------------4------------------6-------------------9---------|
B|---4------4---4-------4------4---4-------7------7---7-------9-------9----9-|
G|-3---3------3-------5---5------5-------8---8------8------10---10------10---|
D|---------------------------------------------------------------------------|
A|---------------------------------------------------------------------------|
E|---------------------------------------------------------------------------|

e|-------11-----------------11-----------------14-----------------16---------|
B|---11-----11--11------13-----13--13------16-----16--16------16-----16--16--|
G|-11--11-----11------13--13-----13------15--15-----15------17--17-----17----|
D|---------------------------------------------------------------------------|
A|---------------------------------------------------------------------------|
E|---------------------------------------------------------------------------|

e|-------18-----------------16-----------------14-----------------11---------|
B|---19-----19--19------16-----16--16------16-----16--16------13-----13------|
G|-20--20-----20------17--17-----17------15--15-----15------13--13-----13-12-|
D|---------------------------------------------------------------------------|
A|---------------------------------------------------------------------------|
E|---------------------------------------------------------------------------|

e|-------11-----------------8------------------6------------------4----------|
B|---11-----11--11------9------9---9-------7------7---7-------4------4---4---|
G|-11--11-----11------8---8------8-------8---8------8-------5---5------5-----|
D|---------------------------------------------------------------------------|
A|---------------------------------------------------------------------------|
E|---------------------------------------------------------------------------|

[Chorus 1]
e|---------------------------------------------------------------------------|\
B|-11-----------------11---------------13-----------------13-----------------| \
G|------11---11-11-13------13---11----------13---13-13-15------15---13-------|  \  x2 
D|-13---13---13-13-13-13---13---13-----13---13---13-13-13-13---13---13-------|  / 
A|---------------------------------------------------------------------------| /
E|---------------------------------------------------------------------------|/

[Verse 2]
e|-14-14---14-14---14-14---14-14-----13-13---13-13---13-13---13-13-----------|
B|-16-16---16-16---16-16---16-16-----14-14---14-14---14-14---14-14-----------|
G|-15-15---15-15---15-15---15-15-----13-13---13-13---13-13---13-13-----------|
D|---------------------------------------------------------------------------|
A|---------------------------------------------------------------------------|
E|---------------------------------------------------------------------------|

e|-11-11---11-11---11-11---11-11-----13-13---13-13---11-11---11-11-----------|
B|-11-11---11-11---11-11---11-11-----14-14---14-14---13-13---13-13-----------|
G|-11-11---11-11---11-11---11-11-----13-13---13-13---13-13---13-13-----------|
D|---------------------------------------------------------------------------|
A|---------------------------------------------------------------------------|
E|---------------------------------------------------------------------------|

e|-11-11---11-11---11-11---11-11-----13-13---13-13---13-13---13-13-----------|
B|-11-11---11-11---11-11---11-11-----14-14---14-14---14-14---14-14-----------| 
G|-11-11---11-11---11-11---11-11-----13-13---13-13---13-13---13-13-----------|  
D|---------------------------------------------------------------------------|   
A|---------------------------------------------------------------------------|    
E|---------------------------------------------------------------------------|     
                                                                                   
e|-14-14---14-14---14-14---14-14-----13-13---13------11>---------------------|       
B|-16-16---16-16---16-16---16-16-----14-14---14------13>---------------------|        
G|-15-15---15-15---15-15---15-15-----13-13---13------13>---------------------|         
D|---------------------------------------------------------------------------|          
A|---------------------------------------------------------------------------|           
E|---------------------------------------------------------------------------|        

e|--11-----11-----11-----11--11--11-----11-----11-----11--11-----------------|
B|--13-----13-----13-----13--13--12-----12-----12-----12--12-----------------|
G|--13-----13-----13-----13--13--13-----13-----13-----13--13-----------------|
D|--13-----13-----13-----13--13--13-----13-----13-----13--13-----------------|
A|--11-----11-----11-----11--11--11-----11-----11-----11--11-----------------|
E|---------------------------------------------------------------------------|

[Chorus 2] Same as first chorus just reverse the order, and these new chords after a while
e|---------------------------------------11-----------------13---------------|
B|-14-----------------14----------------------13---13-13-14------14---13-----| 
G|------15---15-15-17------17---15-------13---13---13-13-13-13---13---13-----|   
D|-16---16---16-16-16-16---16---16-------------------------------------------|   
A|---------------------------------------------------------------------------| 
E|---------------------------------------------------------------------------|

e|-14-----------------14-----------------16-----------------16---------------|
B|------16---16-16-18------18---16------------16---16-16-19------19---16-----|
G|-15---15---15-15-15-15---15---15-------17---17---17-17-17-17---17---17-----|
D|---------------------------------------------------------------------------|
A|---------------------------------------------------------------------------|
E|---------------------------------------------------------------------------|

The part here is an arpeggiated version of the verse chords, in the same order as the verse.
I'll leave it to you to figure it out exactly.

Now it's just the Pre-Chorus, and first part of chorus 2 as the outro.

Guitar 2

[Intro/Verse 1] (Palm Muted)
e|---------6-6-------------6-6-------------------9-9--------------9-9--------|\
B|-----7-7-----7-7-----7-7-----7-7-----------9-9-----9-9------9-9-----9-9----| \
G|-8-8-------------8-8------------------10-10------------10-10---------------|  \   
D|---------------------------------------------------------------------------|   \
A|---------------------------------------------------------------------------|    \
E|---------------------------------------------------------------------------|     \
                                                                                     x3
e|-----------11-11---------------11-11----------------9-9-------------8-8----|     /
B|------11-11-----11-11-----11-11-----11-11-------9-9-----9-9-----9-9-----9-9|    /
G|-11-11---------------11-11-----------------10-10------------8-8------------|   /  
D|---------------------------------------------------------------------------|  / 
A|---------------------------------------------------------------------------| /
E|---------------------------------------------------------------------------|/

e|---------------------------------------------------------------------------|
B|---6----4----6----7--------------------------------------------------------| 
G|---5----5----4----4--------------------------------------------------------|     
D|---------------------------------------------------------------------------|   
A|---------------------------------------------------------------------------|    
E|---------------------------------------------------------------------------|     
                                                                                     
[Verse 1] (cont.)
e|---------6-6----------6--------------------------9-9----------9------------|
B|-----7-7-----7-7------7----------------------9-9-----9-9------9------------| 
G|-8-8------------------8----------------10-10------------------10-----------|     
D|---------------------------------------------------------------------------|   
A|---------------------------------------------------------------------------|    
E|---------------------------------------------------------------------------|     
                                                                                     
e|-----------11-11-----------11-------------------9-9-------------8-8--------|     
B|------11-11-----11-11------11---------------9-9-----9-9-----9-9-----9-9----|    
G|-11-11---------------------11----------10-10------------8-8----------------|     
D|---------------------------------------------------------------------------|   
A|---------------------------------------------------------------------------|
E|---------------------------------------------------------------------------|

e|-6---6---6---6----9----9----9----9-----11---11---11---11----9----9-----8>--|
B|-7---7---7---7----9----9----9----9-----11---11---11---11----9----9-----9>--| 
G|-8---8---8---8----10---10---10---10----11---11---11---11----10---10----8>--|     
D|---------------------------------------------------------------------------|   
A|---------------------------------------------------------------------------|    
E|---------------------------------------------------------------------------|     
                                                                                     
e|---------------------------------------------------------------------------|
B|---6----4----6----7--------------------------------------------------------| 
G|---5----5----4----4--------------------------------------------------------|     
D|---------------------------------------------------------------------------|   
A|---------------------------------------------------------------------------|    
E|---------------------------------------------------------------------------|     

[Pre-Chorus]
e|-6--6--6--6----6----6------------------------------------------------------|\
B|-7--7--7--7----7----7--4--4--4--4----4----4--------------------------------| \
G|-8--8--8--8----8----8--5--5--5--5----5----5--------------------------------|  \ Repeat throughout 
D|-8--8--8--8----8----8--6--6--6--6----6----6--------------------------------|  / Pre-Chorus
A|-6--6--6--6----6----6--6--6--6--6----6----6--------------------------------| /   
E|-----------------------4--4--4--4----4----4--------------------------------|/     
                                                                                     
[Chorus 1]
e|---------------------------------------------------------------------------|\
B|-11---11---11-11-11-11---11---11-----13---13---13-13-13-13---13---13-------| \
G|-11---11---11-11-11-11---11---11-----13---13---13-13-13-13---13---13-------|  \  x2 
D|-13---13---13-13-13-13---13---13-----13---13---13-13-13-13---13---13-------|  / 
A|---------------------------------------------------------------------------| /
E|---------------------------------------------------------------------------|/

[Verse 2]
e|-6---6---6--------9----9----9--------11---11---11------9----9------8---8---|
B|-7---7---7--------9----9----9--------11---11---11------9----9------9---9---| 
G|-8---8---8--------10---10---10-------11---11---11------10---10-----8---8---|     
D|---------------------------------------------------------------------------|   
A|---------------------------------------------------------------------------|    
E|---------------------------------------------------------------------------|     

e|---------6-6-------------6-6-------------------9-9--------------9-9--------|
B|-----7-7-----7-7-----7-7-----7-7-----------9-9-----9-9------9-9-----9-9----| 
G|-8-8-------------8-8------------------10-10------------10-10---------------|     
D|---------------------------------------------------------------------------|   
A|---------------------------------------------------------------------------|    
E|---------------------------------------------------------------------------|     
                                                                                     
e|-----------11-11---------------11-11----------------9-9-------------8-8----|     
B|------11-11-----11-11-----11-11-----11-11-------9-9-----9-9-----9-9-----9-9|    
G|-11-11---------------11-11-----------------10-10------------8-8------------|     
D|---------------------------------------------------------------------------|   
A|---------------------------------------------------------------------------| 
E|---------------------------------------------------------------------------|

e|---------6-6----------6--------------------------9-9----------9------------|
B|-----7-7-----7-7------7----------------------9-9-----9-9------9------------| 
G|-8-8------------------8----------------10-10------------------10-----------|     
D|---------------------------------------------------------------------------|   
A|---------------------------------------------------------------------------|    
E|---------------------------------------------------------------------------|     
                                                                                     
e|-----------11-11-----------11-------------------9-9---------8>-------------|     
B|------11-11-----11-11------11---------------9-9-----9-9-----9>-------------|    
G|-11-11---------------------11----------10-10----------------8>-------------|     
D|---------------------------------------------------------------------------|   
A|---------------------------------------------------------------------------|
E|---------------------------------------------------------------------------|

e|---------------------------------------------------------------------------|
B|---6----4----6----7--------------------------------------------------------| 
G|---5----5----4----4--------------------------------------------------------|     
D|---------------------------------------------------------------------------|   
A|---------------------------------------------------------------------------|    
E|---------------------------------------------------------------------------|  

[Pre-Chorus]
e|-6--6--6--6----6----6------------------------------------------------------|\
B|-7--7--7--7----7----7--4--4--4--4----4----4--------------------------------| \
G|-8--8--8--8----8----8--5--5--5--5----5----5--------------------------------|  \ Repeat throughout 
D|-8--8--8--8----8----8--6--6--6--6----6----6--------------------------------|  / Pre-Chorus
A|-6--6--6--6----6----6--6--6--6--6----6----6--------------------------------| /   
E|-----------------------4--4--4--4----4----4--------------------------------|/     

[Chorus]
e|---------------------------------------------------------------------------|\
B|-11---11---11-11-11-11---11---11-----13---13---13-13-13-13---13---13-------| \
G|-11---11---11-11-11-11---11---11-----13---13---13-13-13-13---13---13-------|  \  x2 
D|-13---13---13-13-13-13---13---13-----13---13---13-13-13-13---13---13-------|  / 
A|---------------------------------------------------------------------------| /
E|---------------------------------------------------------------------------|/

After the chorus it's the same as guitar one; arpeggiated verse chords, and then this.
e|---13---11---13---14-------------------------------------------------------|
B|---13---13---12---12-------------------------------------------------------| 
G|---------------------------------------------------------------------------|     
D|---------------------------------------------------------------------------|   
A|---------------------------------------------------------------------------|    
E|---------------------------------------------------------------------------|     
                                                                                     
[Pre-Chorus]
e|-6--6--6--6----6----6------------------------------------------------------|\
B|-7--7--7--7----7----7--4--4--4--4----4----4--------------------------------| \
G|-8--8--8--8----8----8--5--5--5--5----5----5--------------------------------|  \ Repeat throughout 
D|-8--8--8--8----8----8--6--6--6--6----6----6--------------------------------|  / Pre-Chorus
A|-6--6--6--6----6----6--6--6--6--6----6----6--------------------------------| /   
E|-----------------------4--4--4--4----4----4--------------------------------|/     

[Outro]
e|---------------------------------------------------------------------------|\
B|-13-----------------13---------------11-----------------11-----------------| \
G|------13---13-13-15------15---13----------11---11-11-13------13---11-------|  \  x2 
D|-13---13---13-13-13-13---13---13-----13---13---13-13-13-13---13---13-------|  / 
A|---------------------------------------------------------------------------| /
E|---------------------------------------------------------------------------|/

************************************

| /   slide up
| \   slide down
| h   hammer-on
| p   pull-off
| ~   vibrato
| +   harmonic
| x   Mute note
| >   Sustain

************************************
Suggest correction
Creating personal tab
Creating personal tab
You can edit any tab online and save it as your Personal.

You can edit, replace or remove any tab part or add personal notes – all changes will be seen only by you.

Personal tabs can be accessed anytime from any device, even offline.
Learn more »
comments
print report bad tab
1 comment total.
0 reply
james393939 36 Apr 27, 2017 05:24 PM

In tge pre-chorus for guitar one, after the 876 chord it's 8 on the g, 9 on the b, and 8 on the e. It's not the 9 10 10 chord.

guest
You may want to rate the tab now too:
select rating
Wanna post a correction for this tab? Suggest correction