Oops, an error
Loading. Please wait.

Oblivius Bass Tab

version 3
version 3

Whole song

Interactive

22 views 1 this week
no commentswrite comment
1 2 3 4 5
3 more votes to show rating
add to favorites
launch autoscroll
font size
0
reset
guitar tuner
Autoscroll
slow
fast
+/-
esc
set tempo
stop
Help us to improve Ultimate-Guitar.com Take our survey!
×
Author
Difficulty
intermediate
[Intro]
G|--------------------|
D|--------------------|
A|-6------------------|
E|--------------------|

G|-------10-8------------10-8-------|
D|------------x-10--8-8--------x-10-|   x4
A|--8-8-----------------------------|
E|----------------------------------|

[Verse]
Untame me, It's not my midlife yet...
G|-------------------------------|
D|-------------------------------|   x4
A|------------3--1-1--1--1--3----|
E|--1-1--1--1--------------------|


[Pre-Chorus]
Take off from the runway...
G|-------10-8------------10-8------|
D|------------x-10--8-8-------x-10-|   x6
A|--8-8----------------------------|
E|---------------------------------|

[Chorus]
G|-------------------------------------|-5-5-5-5-5-5-5-5-5-|-------------------|
D|-6-6-6-6-6-6-6-6-6-6-6-6-6-6-6-6-6-6-|-------------------|-------------------|  x2
A|-------------------------------------|-------------------|-6-6-6-6-6-6-6-6-6-|
E|-------------------------------------|-------------------|-------------------|

[Pre-verse]
G|-------10-8------------10-8------|
D|------------x-10--8-8-------x-10-|   x2
A|--8-8----------------------------|
E|---------------------------------|

[Verse 2]
Untame me, it's time...
G|------------------------------|
D|------------------------------|   x4
A|------------3--1-1--1--1--3----|
E|--1-1--1--1--------------------|

[Pre-Chorus 2]
Take off from the runway...
G|-------10-8------------10-8------|
D|------------x-10--8-8-------x-10-|   x4
A|--8-8----------------------------|
E|---------------------------------|

[Chorus 2 and Bridge]
G|-------------------------------------|-5-5-5-5-5-5-5-5-5-|-------------------|
D|-6-6-6-6-6-6-6-6-6-6-6-6-6-6-6-6-6-6-|-------------------|-------------------|  x4
A|-------------------------------------|-------------------|-6-6-6-6-6-6-6-6-6-|
E|-------------------------------------|-------------------|-------------------|

[Guitar Solo]
G|---------------------|---------------------|---------------------|-------------------------------|
D|---------------------|-6-6-6-6-6-6-6-6-6-6-|-8-8-8-8-8-8-8-8-8-8-|-10-10-10-10-10-10-10-10-10-10-|
A|-8-8-8-8-8-8-8-8-8-8-|---------------------|---------------------|-------------------------------|
E|---------------------|---------------------|---------------------|-------------------------------|

G|---------------------|---------------------|---------------------|----------------|--8-8-8-8-8-8-10-|
D|---------------------|-6-6-6-6-6-6-6-6-6-6-|-8-8-8-8-8-8-8-8-8-8-|-10-10-10-10-10-|-----------------|
A|-8-8-8-8-8-8-8-8-8-8-|---------------------|---------------------|----------------|-----------------|
E|---------------------|---------------------|---------------------|----------------|-----------------|

[Bridge 2]
G|-------------------------------|
D|-------------------------------|  x4
A|--8-8~---4-4~---------6-6~-----|
E|---------------6-6~------------|

[Chorus and Outro]
G|-------------------------------------|-5-5-5-5-5-5-5-5-5-|-------------------|
D|-6-6-6-6-6-6-6-6-6-6-6-6-6-6-6-6-6-6-|-------------------|-------------------|  x5
A|-------------------------------------|-------------------|-6-6-6-6-6-6-6-6-6-|
E|-------------------------------------|-------------------|-------------------|


************************************

| x  Dead note
| ~  Vibrato

************************************
Suggest correction
Give kudos to tab author, rate the tab!
1 2 3 4 5
comments
print report bad tab
guest
You may want to rate the tab now too:
select rating
Wanna post a correction for this tab? Suggest correction