Oops, an error
Loading. Please wait.

Oblivius tab

version 3
version 3

Whole song

Interactive

1,063 views 3 this week
no commentswrite comment
1 2 3 4 5
2 more votes to show rating
add to favorites
×
Save as Personal and add changes to this tab that will be seen only by you. Learn more ›
×
You can save this tab as Personal to edit and correct it or add notes. All changes will be seen only by you. Learn more »
launch autoscroll
font size
0
reset
how to read this tab
guitar tuner
edit
Autoscroll
slow
fast
+/-
esc
set tempo
stop
Author
[Intro]

Guitar 1  
  Fm                               Bbm7
e|------------------------------------------------------------------|
B|-9-8--9-8--9-8-8h9p8h9p8-11-9-8---8-6--8-6--8-6--6h8p6h8p6-9--8-6-|
G|------------------------------------------------------------------|
D|------------------------------------------------------------------|
A|------------------------------------------------------------------|
E|------------------------------------------------------------------| x2

e|-8-6--8-6--8-6-6h8p6h8p6-9--8-6---6-4--6-4--6-4--4h6p4h6p4-8--6-4-|
B|------------------------------------------------------------------|
G|------------------------------------------------------------------|
D|------------------------------------------------------------------|
A|------------------------------------------------------------------|
E|------------------------------------------------------------------| x2


Guitar 2 
  Fm                               Bbm7
e|------------------------------------------------------------------|
B|-----------------------------------------------------------1------|
G|-5-3--5-3--5-3-3h5p3h5p3-6--5-3---3-1--3-1--3-1--1h3p1h3p1----3-1-|
D|------------------------------------------------------------------|
A|------------------------------------------------------------------|
E|------------------------------------------------------------------| x2

  Fm                               Bbm7
e|------------------------------------------------------------------|
B|-9-8--9-8--9-8-8h9p8h9p8-11-9-8---8-6--8-6--8-6--6h8p6h8p6-9--8-6-|
G|------------------------------------------------------------------|
D|------------------------------------------------------------------|
A|------------------------------------------------------------------|
E|------------------------------------------------------------------| x2

Guitar 3
  Fm             Bbm
e|----------------------------|
B|-6-6---6-6--6---------------|
G|-5-5---5-5--5---6-6---6--6--|
D|-6-6---6-6--6---8-8---8--6--|
A|------------8---8-8---8--8--|
E|----------------------------|


[Verse]

Guitar 1  
  Fm                               Bbm7
e|------------------------------------------------------------------|
B|-9-8--9-8--9-8-8h9p8h9p8-11-9-8---8-6--8-6--8-6--6h8p6h8p6-9--8-6-|
G|------------------------------------------------------------------|
D|------------------------------------------------------------------|
A|------------------------------------------------------------------|
E|------------------------------------------------------------------| x2

e|-8-6--8-6--8-6-6h8p6h8p6-9--8-6---6-4--6-4--6-4--4h6p4h6p4-8--6-4-|
B|------------------------------------------------------------------|
G|------------------------------------------------------------------|
D|------------------------------------------------------------------|
A|------------------------------------------------------------------|
E|------------------------------------------------------------------| x2


Guitar 2 
  Fm                               Bbm7
e|------------------------------------------------------------------|
B|-----------------------------------------------------------1------|
G|-5-3--5-3--5-3-3h5p3h5p3-6--5-3---3-1--3-1--3-1--1h3p1h3p1----3-1-|
D|------------------------------------------------------------------|
A|------------------------------------------------------------------|
E|------------------------------------------------------------------| x2

  Fm                               Bbm7
e|------------------------------------------------------------------|
B|-9-8--9-8--9-8-8h9p8h9p8-11-9-8---8-6--8-6--8-6--6h8p6h8p6-9--8-6-|
G|------------------------------------------------------------------|
D|------------------------------------------------------------------|
A|------------------------------------------------------------------|
E|------------------------------------------------------------------| x2

Guitar 3
  Fm             Bbm
e|----------------------------|
B|-6-6---6-6--6---------------|
G|-5-5---5-5--5---6-6---6--6--|
D|-6-6---6-6--6---8-8---8--6--|
A|------------8---8-8---8--8--|
E|----------------------------|


[Pre-Chorus]

Guitar 1:
  Take   off of the run way,  Think ing of a sad day
e|-11-----8---11-8---9---6-----8---------8----6-------|
B|-----------------------------------9------9-----6---|
G|----------------------------------------------------|
D|----------------------------------------------------|
A|----------------------------------------------------|
E|----------------------------------------------------|


  Rac ing down the high way, Look  ing at me side ways
e|-11--8---11---8---9---6-----8---------8-----6--------|
B|-----------------------------------9------9------6---|
G|-----------------------------------------------------|
D|-----------------------------------------------------|
A|-----------------------------------------------------|
E|-----------------------------------------------------|

Guitar 2
  Take   off of the run way,  Think ing of a sad day
e|-8----------8------6-------------------------------|
B|--------9------9-------8-----9-----6---9--6-8------|
G|------------------------------------------------8--|
D|---------------------------------------------------|
A|---------------------------------------------------|
E|---------------------------------------------------|


  Rac ing down the high way, Look  ing at me side ways
e|-8-------8--------6----------------------------------|
B|-----9--------9-------8-----9------6--9--6--8--------|
G|-------------------------------------------------8---|
D|-----------------------------------------------------|
A|-----------------------------------------------------|
E|-----------------------------------------------------|


[Chorus]

  Fm                      
e|-8--8--8--8--8--8--8--8--8--8--8--8--8--8--8--8--|
B|-9--9--9--9--9--9--9--9--9--9--9--9--9--9--9--9--|
G|-10-10-10-10-10-10-10-10-10-10-10-10-10-10-10-10-|
D|-10-10-10-10-10-10-10-10-10-10-10-10-10-10-10-10-|
A|-8--8--8--8--8--8--8--8--8--8--8--8--8--8--8--8--|
E|-------------------------------------------------|


  Cm                       Eb      Eb7
e|-8--8--8--8--8--8--8--8---6-6-6-6-6-6-6--|
B|-8--8--8--8--8--8--8--8---8-8-8-8-8-8-8--|
G|-8--8--8--8--8--8--8--8---8-8-8-6-6-6-6--|
D|-10-10-10-10-10-10-10-10--8-8-8-8-8-8-8--|
A|-10-10-10-10-10-10-10-10-----------------|
E|-----------------------------------------|


[Instrumental]

Guitar 1  
  Fm                               Bbm7
e|------------------------------------------------------------------|
B|-9-8--9-8--9-8-8h9p8h9p8-11-9-8---8-6--8-6--8-6--6h8p6h8p6-9--8-6-|
G|------------------------------------------------------------------|
D|------------------------------------------------------------------|
A|------------------------------------------------------------------|
E|------------------------------------------------------------------| x2

e|-8-6--8-6--8-6-6h8p6h8p6-9--8-6---6-4--6-4--6-4--4h6p4h6p4-8--6-4-|
B|------------------------------------------------------------------|
G|------------------------------------------------------------------|
D|------------------------------------------------------------------|
A|------------------------------------------------------------------|
E|------------------------------------------------------------------| x2


Guitar 2 
  Fm                               Bbm7
e|------------------------------------------------------------------|
B|-----------------------------------------------------------1------|
G|-5-3--5-3--5-3-3h5p3h5p3-6--5-3---3-1--3-1--3-1--1h3p1h3p1----3-1-|
D|------------------------------------------------------------------|
A|------------------------------------------------------------------|
E|------------------------------------------------------------------| x2

  Fm                               Bbm7
e|------------------------------------------------------------------|
B|-9-8--9-8--9-8-8h9p8h9p8-11-9-8---8-6--8-6--8-6--6h8p6h8p6-9--8-6-|
G|------------------------------------------------------------------|
D|------------------------------------------------------------------|
A|------------------------------------------------------------------|
E|------------------------------------------------------------------| x2

Guitar 3
  Fm             Bbm
e|----------------------------|
B|-6-6---6-6--6---------------|
G|-5-5---5-5--5---6-6---6--6--|
D|-6-6---6-6--6---8-8---8--6--|
A|------------8---8-8---8--8--|
E|----------------------------|


[Verse]

Guitar 1  
  Fm                               Bbm7
e|------------------------------------------------------------------|
B|-9-8--9-8--9-8-8h9p8h9p8-11-9-8---8-6--8-6--8-6--6h8p6h8p6-9--8-6-|
G|------------------------------------------------------------------|
D|------------------------------------------------------------------|
A|------------------------------------------------------------------|
E|------------------------------------------------------------------| x2

e|-8-6--8-6--8-6-6h8p6h8p6-9--8-6---6-4--6-4--6-4--4h6p4h6p4-8--6-4-|
B|------------------------------------------------------------------|
G|------------------------------------------------------------------|
D|------------------------------------------------------------------|
A|------------------------------------------------------------------|
E|------------------------------------------------------------------| x2


Guitar 2 
  Fm                               Bbm7
e|------------------------------------------------------------------|
B|-----------------------------------------------------------1------|
G|-5-3--5-3--5-3-3h5p3h5p3-6--5-3---3-1--3-1--3-1--1h3p1h3p1----3-1-|
D|------------------------------------------------------------------|
A|------------------------------------------------------------------|
E|------------------------------------------------------------------| x2

  Fm                               Bbm7
e|------------------------------------------------------------------|
B|-9-8--9-8--9-8-8h9p8h9p8-11-9-8---8-6--8-6--8-6--6h8p6h8p6-9--8-6-|
G|------------------------------------------------------------------|
D|------------------------------------------------------------------|
A|------------------------------------------------------------------|
E|------------------------------------------------------------------| x2

Guitar 3
  Fm             Bbm
e|----------------------------|
B|-6-6---6-6--6---------------|
G|-5-5---5-5--5---6-6---6--6--|
D|-6-6---6-6--6---8-8---8--6--|
A|------------8---8-8---8--8--|
E|----------------------------|


[Pre-Chorus]

Guitar 1
  Take   off of the run way,  Think ing of a sad day
e|-11-----8---11-8---9---6-----8---------8----6-------|
B|-----------------------------------9------9-----6---|
G|----------------------------------------------------|
D|----------------------------------------------------|
A|----------------------------------------------------|
E|----------------------------------------------------|


  Rac ing down the high way, Look  ing at me side ways
e|-11--8---11---8---9---6-----8---------8-----6--------|
B|-----------------------------------9------9------6---|
G|-----------------------------------------------------|
D|-----------------------------------------------------|
A|-----------------------------------------------------|
E|-----------------------------------------------------|

Guitar 2
  Take   off of the run way,  Think ing of a sad day
e|-8----------8------6-------------------------------|
B|--------9------9-------8-----9-----6---9--6-8------|
G|------------------------------------------------8--|
D|---------------------------------------------------|
A|---------------------------------------------------|
E|---------------------------------------------------|


  Rac ing down the high way, Look  ing at me side ways
e|-8-------8--------6----------------------------------|
B|-----9--------9-------8-----9------6--9--6--8--------|
G|-------------------------------------------------8---|
D|-----------------------------------------------------|
A|-----------------------------------------------------|
E|-----------------------------------------------------|


[Chorus]

  Fm                      
e|-8--8--8--8--8--8--8--8--8--8--8--8--8--8--8--8--|
B|-9--9--9--9--9--9--9--9--9--9--9--9--9--9--9--9--|
G|-10-10-10-10-10-10-10-10-10-10-10-10-10-10-10-10-|
D|-10-10-10-10-10-10-10-10-10-10-10-10-10-10-10-10-|
A|-8--8--8--8--8--8--8--8--8--8--8--8--8--8--8--8--|
E|-------------------------------------------------|


  Cm                       Eb      Eb7
e|-8--8--8--8--8--8--8--8---6-6-6-6-6-6-6--|
B|-8--8--8--8--8--8--8--8---8-8-8-8-8-8-8--|
G|-8--8--8--8--8--8--8--8---8-8-8-6-6-6-6--|
D|-10-10-10-10-10-10-10-10--8-8-8-8-8-8-8--|
A|-10-10-10-10-10-10-10-10-----------------|
E|-----------------------------------------|


[Solo]

e|--------------------------------------------------|
B|-6b8-6---4-6-6b8-6---4-6--9b11-9---8-9-8b9-8---4--|
G|--------------------------------------------------|
D|--------------------------------------------------|
A|--------------------------------------------------|
E|--------------------------------------------------|

e|---------------------------------------------------------|
B|-*6b8-6---4-6-6b8-6---4-6--9b11-9---11b13-11---14b16-14--|
G|---------------------------------------------------------|
D|---------------------------------------------------------|
A|---------------------------------------------------------|
E|---------------------------------------------------------|


[Bridge]

Lead Guitar
  Fm                        Db          Dbmaj7
e|------8-----8-----8-----8-----9-----9-----8-----8-|
B|---9-----9-----9-----9-----9-----9-----9-----9----|
G|-10-10-10-10-10-10-10-10-10-10-10-10-10-10-10-10--|
D|--------------------------------------------------|
A|--------------------------------------------------|
E|--------------------------------------------------|

  Bbm                         Eb              Eb7
e|------9-------9------9------9------11-----11----9------9--|
B|---11-----11-----11-----11-----11-----11-----11----11-----|
G|-10--10-10--10-10--10-10--10-12--12-12--12-12-12-12--12---|
D|----------------------------------------------------------|
A|----------------------------------------------------------|
E|----------------------------------------------------------|


Other Guitar
  Fm                      Db      Db/C
e|-8--8--8--8--8--8--8--8--4-4-4-4-1-1-1-1--|
B|-9--9--9--9--9--9--9--9--6-6-6-6-2-2-2-2--|
G|-10-10-10-10-10-10-10-10-6-6-6-6-1-1-1-1--|
D|-10-10-10-10-10-10-10-10-6-6-6-6-X-X-X-X--|
A|-8--8--8--8--8--8--8--8--4-4-4-4-3-3-3-3--|
E|------------------------------------------|


  Bbm             Eb      Eb7
e|-6-6-6-6-6-6-6-6-6-6-6-6-6-6-6-6--|
B|-6-6-6-6-6-6-6-6-8-8-8-8-8-8-8-8--|
G|-6-6-6-6-6-6-6-6-8-8-8-8-6-6-6-6--|
D|-8-8-8-8-8-8-8-8-8-8-8-8-8-8-8-8--|
A|-8-8-8-8-8-8-8-8------------------|
E|----------------------------------|


[Chorus]

  Fm                      
e|-8--8--8--8--8--8--8--8--8--8--8--8--8--8--8--8--|
B|-9--9--9--9--9--9--9--9--9--9--9--9--9--9--9--9--|
G|-10-10-10-10-10-10-10-10-10-10-10-10-10-10-10-10-|
D|-10-10-10-10-10-10-10-10-10-10-10-10-10-10-10-10-|
A|-8--8--8--8--8--8--8--8--8--8--8--8--8--8--8--8--|
E|-------------------------------------------------|


  Cm                       Eb      Eb7
e|-8--8--8--8--8--8--8--8---6-6-6-6-6-6-6--|
B|-8--8--8--8--8--8--8--8---8-8-8-8-8-8-8--|
G|-8--8--8--8--8--8--8--8---8-8-8-6-6-6-6--|
D|-10-10-10-10-10-10-10-10--8-8-8-8-8-8-8--|
A|-10-10-10-10-10-10-10-10-----------------|
E|-----------------------------------------|



************************************

| h  Hammer-on
| p  Pull-off
| b  Bend
| *  Pinch harmonic
| X  Dead note

************************************

            
            
Suggest correction
Creating personal tab
Creating personal tab
You can edit any tab online and save it as your Personal.

You can edit, replace or remove any tab part or add personal notes – all changes will be seen only by you.

Personal tabs can be accessed anytime from any device, even offline.
Learn more »
Give kudos to tab author, rate the tab!
1 2 3 4 5
comments
print report bad tab
guest
You may want to rate the tab now too:
select rating
Wanna post a correction for this tab? Suggest correction