Oops, an error
Loading. Please wait.

Oblivius tab

version 4
version 4

Whole song

Interactive

31 views 1 this week
no commentswrite comment
1 2 3 4 5
3 more votes to show rating
add to favorites
×
Save as Personal and add changes to this tab that will be seen only by you. Learn more ›
×
You can save this tab as Personal to edit and correct it or add notes. All changes will be seen only by you. Learn more »
launch autoscroll
font size
0
reset
how to read this tab
guitar tuner
edit
Autoscroll
slow
fast
+/-
esc
set tempo
stop
About this tab version
Well, really i dont know, because use the string B, like a make the strokes in live, he only move for this space, and the solo is more easy to play in this form. Was this info helpful? Yes No
[Intro]
e|---------------------------------------------------------------------------|
B|-9-8-9-8-9-8-(9)-8h9p8----9-8--------8-6-8-6-8-6-(8)-6h8p6---8-6-----------|
G|-----------------------10-----10---------------------------8-----8---------|
D|---------------------------------------------------------------------------|
A|---------------------------------------------------------------------------|
E|---------------------------------------------------------------------------|

e|-------------------------------------------------------------6b------------|
B|-9-8-9-8-9-8-(9)-8h9p8----9-8--------8-6-8-6-8-6-(8)-6h8p6------6----------|
G|-----------------------10-----10---------------------------8---------------|
D|---------------------------------------------------------------------------|
A|---------------------------------------------------------------------------|
E|---------------------------------------------------------------------------|
This is only for the intro 
(I dont remember if are X2 or X4, but listening the song you can remember)
e|----------------------------------------------  ---------------------------|
B|-13-11-13-11-13-11-(13)-11h13p11----13-11-----X2---------------------------|
G|---------------------------------13-------13--  ---------------------------|
D|----------------------------------------------  ---------------------------|
A|----------------------------------------------  ---------------------------|
E|----------------------------------------------  ---------------------------|

[Chorus or Verse]
e|---11--------11------------------------------------------------------------|
B|-------13-------13-14---11------13--------13-------------------------------|
G|-----------------------------------13--------13---12---15------------------|
D|---------------------------------------------------------------------------|
A|---------------------------------------------------------------------------|
E|---------------------------------------------------------------------------|

[First Solo]
e|---------------------------------------------------------------------------|
B|-------------------------------9b11-11--------8b10-10---13bharm------------|
G|-10b12-10---8h10b12-10---8h10-----------8h10-------------------------------|
D|---------------------------------------------------------------------------|
A|---------------------------------------------------------------------------|
E|---------------------------------------------------------------------------|

e|---------------------------------------------------------------------------|
B|-----------------------9b11-11---11b13--13b14--11b13-----------------------|
G|-10—8h10b12-10---8h10------------------------------------------------------|
D|---------------------------------------------------------------------------|
A|---------------------------------------------------------------------------|
E|---------------------------------------------------------------------------|

[Final Solo]
e|----------8---   ----------9--   ----------8---   ---------9-   -----------|
B|-----9-------- x4-----9------- x2------9------- x2----11----- x4-----------|
G|--10---10-----   --10---10----   --10---10-----   -10----10--   -----------|
D|--------------   -------------   --------------   -----------   -----------|
A|--------------   -------------   --------------   -----------   -----------|
E|--------------   -------------   --------------   -----------   -----------|

e|-----------11--  ----------10-   ------------------------------------------|
B|-----11--------x2----11------- x2------------------------------------------|
G|--12----12-----  -12----12----   ------------------------------------------|
D|---------------  -------------   ------------------------------------------|
A|---------------  -------------   ------------------------------------------|
E|---------------  -------------   ------------------------------------------|

[Screams of Julian Casablancas, haha]


************************************

|(n) Ghost note
| h   Hammer-on
| p   Pull-off
| bharm Bend+harmonic(Thump)
| b   Bend

************************************

            
            
Suggest correction
Creating personal tab
Creating personal tab
You can edit any tab online and save it as your Personal.

You can edit, replace or remove any tab part or add personal notes – all changes will be seen only by you.

Personal tabs can be accessed anytime from any device, even offline.
Learn more »
Give kudos to tab author, rate the tab!
1 2 3 4 5
comments
print report bad tab
guest
You may want to rate the tab now too:
select rating
Wanna post a correction for this tab? Suggest correction