Oops, an error
Loading. Please wait.

One Way Trigger bass

version 1
version 1

Whole song

Interactive

4,315 views 15 this week
4 commentsread comments
1 2 3 4 5
x 4
add to favorites
×
Save as Personal and add changes to this tab that will be seen only by you. Learn more ›
×
You can save this tab as Personal to edit and correct it or add notes. All changes will be seen only by you. Learn more »
launch autoscroll
font size
0
reset
guitar tuner
edit
Autoscroll
slow
fast
+/-
esc
set tempo
stop
Author
Difficulty
One Way Trigger - The Strokes
Tabbed by: Radagast27 [http://www.youtube.com/user/Radagast27]
E-mail: christopher.willett@gmail.com
Tuning: standard

Intro [play multiple strikes per note (applies throughout this tab), a fairly steady 
rhythm]:
     E      A       F#      G
G|---------------------------------------------------------------------------|
D|----------7-------4-------5------------------------------------------------|
A|---7-----------------------------------------------------------------------|
E|---------------------------------------------------------------------------|


Verse "Get dressed in your bed, while she's asleep…" [repeat 4 times]:
     E      A       F#      G
G|---------------------------------------------------------------------------|
D|----------7-------4-------5------------------------------------------------|
A|---7-----------------------------------------------------------------------|
E|---------------------------------------------------------------------------|


Bridge "you ask me to stay…" [play with a more swinging rhythm]:
     E      C#       D       B
G|---------------------------------------------------------------------------|
D|---------------------------------------------------------------------------|
A|---7------4--------5-------2-----------------------------------------------|
E|---------------------------------------------------------------------------|

     E      C#       D      (B  A  G)
G|---------------------------------------------------------------------------|
D|----------11-------12------9--7--5-----------------------------------------|
A|---7-----------------------------------------------------------------------|
E|---------------------------------------------------------------------------|

     E      C#       D       B
G|---------------------------------------------------------------------------|
D|---------------------------------------------------------------------------|
A|---7------4--------5-------2-----------------------------------------------|
E|---------------------------------------------------------------------------|

     E
G|---------------------------------------------------------------------------|
D|---------------------------------------------------------------------------|
A|---7~~~~-------------------------------------------------------------------|
E|---------------------------------------------------------------------------|


Chorus "Find a job, find a plan, find a home, find a dog…" [repeat 2 times]:
     E      A       F#      G
G|---------------------------------------------------------------------------|
D|------------------4-------5------------------------------------------------|
A|---7-----------------------------------------------------------------------|
E|----------5----------------------------------------------------------------|


Guitar Solo (play with a more driving rhythm):
     E       A       F#       G      
G|---------------------------------------------------------------------------|
D|---------------------------------------------------------------------------|
A|---7---------------9-------10----------------------------------------------|
E|-----------5---------------------------------------------------------------|

     E       A       F#       G       (E F# G)
G|---------------------------------------------------------------------------|
D|-----------7---------------------------------------------------------------|
A|---7---------------9-------10--------7-9-10--------------------------------|
E|---------------------------------------------------------------------------|


Verse "Please, please don't point it that way…" 
[Repeat 6 times, play fewer strikes per note the first time 
then increase number of strikes per note; last time hit a lower octave A]:
     E      A       F#      G
G|---------------------------------------------------------------------------|
D|----------7-------4-------5------------------------------------------------|
A|---7-----------------------------------------------------------------------|
E|---------------------------------------------------------------------------|


Bridge "if you ask me to stay…":
     E      C#       D       B
G|---------------------------------------------------------------------------|
D|---------------------------------------------------------------------------|
A|---7------4--------5-------2-----------------------------------------------|
E|---------------------------------------------------------------------------|

     E      C#       D      (B  A  G)
G|---------------------------------------------------------------------------|
D|----------11-------12------9--7--5-----------------------------------------|
A|---7-----------------------------------------------------------------------|
E|---------------------------------------------------------------------------|

     E      C#       D       B
G|---------------------------------------------------------------------------|
D|---------------------------------------------------------------------------|
A|---7------4--------5-------2-----------------------------------------------|
E|---------------------------------------------------------------------------|

     E      C#       D      (B  A  G  F#)
G|---------------------------------------------------------------------------|
D|----------11-------12------9--7--5--4--------------------------------------|
A|---7-----------------------------------------------------------------------|
E|---------------------------------------------------------------------------|



Bass rests for next couple verses "Show me what to say, show me what to be…"



Verse "find a job, find a plan, find a home, find a dog…"
     E      A       F#      G
G|---------------------------------------------------------------------------|
D|----------7-------4-------5------------------------------------------------|
A|---7-----------------------------------------------------------------------|
E|---------------------------------------------------------------------------|

     E      A       F#      G
G|---------------------------------------------------------------------------|
D|----------7-------4-------5------------------------------------------------|
A|---7-----------------------------------------------------------------------|
E|---------------------------------------------------------------------------|

Verse "I don't wanna be in there with you…" (same notes, lower octave, heavier)
     E      A       F#      G
G|---------------------------------------------------------------------------|
D|---------------------------------------------------------------------------|
A|---7-----------------------------------------------------------------------|
E|----------5-------2-------3------------------------------------------------|

     E      A       F#      G
G|---------------------------------------------------------------------------|
D|---------------------------------------------------------------------------|
A|---------------------------------------------------------------------------|
E|---0-------5-------2-------3-----------------------------------------------|


Final notes:
     B
G|---------------------------------------------------------------------------|
D|---------------------------------------------------------------------------|
A|---------------------------------------------------------------------------|
E|---7~~~~----7~~~~-----7----------------------------------------------------|


| /  slide up
| \  slide down
| h  hammer-on
| p  pull-off
| ~  vibrato
| +  harmonic
| x  Mute note

            
            
Suggest correction
Creating personal tab
Creating personal tab
You can edit any tab online and save it as your Personal.

You can edit, replace or remove any tab part or add personal notes – all changes will be seen only by you.

Personal tabs can be accessed anytime from any device, even offline.
Learn more »
comments
print report bad tab
4 comments total. Showing first comments.
0 reply
mmcguire1095 88 Mar 19, 2013 10:36 AM

Excellent tab. Well done!

0 reply
mathos.brook 10 Jun 29, 2015 11:46 AM

Lack of accuracy. The main riff, a7 e5 a5 e3, is wrong, sounds right but in the song it sonuds more like a7 e5 a9 a10

guest
You may want to rate the tab now too:
select rating
Wanna post a correction for this tab? Suggest correction