Oops, an error
Loading. Please wait.

One Way Trigger Tab

version 3
version 3

Whole song

Interactive

1,928 views 6 this week
no commentswrite comment
1 2 3 4 5
worth learning
x 1
add to favorites
launch autoscroll
font size
0
reset
how to read this tab
guitar tuner
Tab Pro tools
  • play this tab
  • loop segment
  • change instrument
  • show fretboard
  • metronome
Autoscroll
slow
fast
+/-
esc
set tempo
stop
Contributor
First Part 

idk the times but it's easy to get it

|---------5----------3-------|
|----8----5---7------3-------|
|----9----6---7-6----4-------|
|----9----7---7-7----5-------|
|----7----7---5-5----5-------|
|----------------------------|

You ask me to stay part
|---------------7------------|
|--8-----7------7------------|
|--9-----7------7------------|
|--9-----7------9------------|
|--7-----5------9------------|
|----------------------------|

Solo

|----------------------9-9--|
|--7-8-7-8-7--7-8-7-8--8-8--|
|---------------------------|
|---------------------------|
|---------------------------|
|---------------------------|

|-----------------------5-5-|
|--7-8-7-10-7-7-8-7-8-7-7-7-|
|---------------------------|
|---------------------------|
|---------------------------|
|---------------------------|

|----------------------3-3--|
|--5-7-5-7-5--5-7-5-7--5-5--|
|---------------------------|
|---------------------------|
|---------------------------|
|---------------------------|

|---------------------------|
|-3-5-3-5-3---5--7--8-------|
|-------------7b-9b-10b-----|
|---------------------------|
|---------------------------|
|---------------------------|

|-9-10-9-10-9--9-10-9-10-9-9-9--|
|-------------------------------|
|-------------------------------|
|-------------------------------|
|-------------------------------|
|-------------------------------|

|-10-12-10-12-10--10-12-10-12-10-10-10-|
|--------------------------------------|
|--------------------------------------|
|--------------------------------------|
|--------------------------------------|
|--------------------------------------|

|-12-14-12-14-12--12-14-12-14-12-12-12---|
|----------------------------------------|
|----------------------------------------|
|----------------------------------------|
|----------------------------------------|
|----------------------------------------|

|-14-15-14-15-14--12--14--15--------------|
|-----------------15b-17b-18b-------------|
|-----------------------------------------|
|-----------------------------------------|
|-----------------------------------------|
|-----------------------------------------|

When the solo ends play again the first 

http://youtu.be/Lnn4b9BBeLk here is my video watch it 

Maybe i'll do bass tab soon
comments
We did not receive enough feedback on this tab! Please rate:
print report bad tab
1 2 3 4 5
I want to post or [tab]
guest
You may want to rate the tab now too:
select rating
Please do not post tabs as comments. Select "correction" instead!