Oops, an error
Loading. Please wait.

Razor Blade bass

version 2
version 2

Whole song

Interactive

3,149 views 3 this week
no commentswrite comment
1 2 3 4 5
x 4
add to favorites
×
Save as Personal and add changes to this tab that will be seen only by you. Learn more ›
×
You can save this tab as Personal to edit and correct it or add notes. All changes will be seen only by you. Learn more »
launch autoscroll
font size
0
reset
guitar tuner
edit
Autoscroll
slow
fast
+/-
esc
set tempo
stop
Author
This tab wasnt tabbed by me but i think its gonna be a good addon for this great site

Song: Razorblade
Artist: The Strokes
Album: First Impressions of Earth
Bassist: Nikolai Fraiture
Tuning: Standard

Intro:
E-5--5-5-5-5--5-5-5--2--2-2-2-2--2-2-2--------------------------------------|
A--------------------------------------2--2-2-2-2--2-2-2--2--2-2-2-2--2-2-2-|
D---------------------------------------------------------------------------|
G---------------------------------------------------------------------------|X2

E------------------------|
A-5-5-5--5-5--2-2-2--2-2-|
D------------------------|
G------------------------|

Verse:
"Oh the razorblade..."
E-5---5----------7--7--7---|
A----4---4-5-7-4-----5-----|
D------------------------9-|
G--------------------------|

E-5---5-----------------------|
A----4---------7--5--5-5------|
D--------9-7-6--------4---12~-|
G-----------------------------|

E-5---5---------|
A----4-------7/-|
D--------9-7----|
G---------------|

"Anything to forget..."      X2
E------------|
A-5~-5--2~-2-|
D------------|
G------------|

Chorus & Interlude:
"Your feelings..."
E-5--5-5-5-5--5-5-5--2--2-2-2-2--2-2-2--------------------------------------|
A--------------------------------------2--2-2-2-2--2-2-2--2--2-2-2-2--2-2-2-|
D---------------------------------------------------------------------------|
G---------------------------------------------------------------------------|X4

E------------------------|
A-5-5-5--5-5--2-2-2--2-2-|
D------------------------|
G------------------------|

Verse2:
"Oh the razorblade..."
E-5---5----------7--7--7---|
A----4---4-5-7-4-----5-----|
D------------------------9-|
G--------------------------|

E-5---5-----------------------|
A----4---------7--5--5-5------|
D--------9-7-6--------4---12~-|
G-----------------------------|

E-5---5---------|
A----4-------7/-|
D--------9-7----|
G---------------|

"Anything to forget..."      X2
E------------|
A-5~-5--2~-2-|
D------------|
G------------|

"He would never talk..."
E-5-5-5-5-5-5-5-5-5-5---------------------------------------------------------------------------|
A---------------------2-2-2-2-2-2-2-2-2-4-4-4-4-4-4-4-4-4-5-5-5-5-5-5-5-5-5-5-4-4-4-4-4-4-4-4-4-|
D-----------------------------------------------------------------------------------------------|
G-----------------------------------------------------------------------------------------------|

"Say it now..."
E------------|
A-5~-5--2~-2-|
D------------|
G------------|

Chorus

Guitar's solo(just play the chorus riff)

Chorus

Outro
"tell me...no, don't, okay."
E-----------------|
A-5~---2~---0~~~--|
D-----------------|
G-----------------|
Suggest correction
Creating personal tab
Creating personal tab
You can edit any tab online and save it as your Personal.

You can edit, replace or remove any tab part or add personal notes – all changes will be seen only by you.

Personal tabs can be accessed anytime from any device, even offline.
Learn more »
comments
print report bad tab
guest
You may want to rate the tab now too:
select rating
Wanna post a correction for this tab? Suggest correction