Oops, an error
Loading. Please wait.
We have an official Razorblade tab made by UG professional guitarists. Check out the tab »
×
31 views 1 this week
no commentswrite comment
1 2 3 4 5
3 more votes to show rating
add to favorites
×
Save as Personal and add changes to this tab that will be seen only by you. Learn more ›
×
You can save this tab as Personal to edit and correct it or add notes. All changes will be seen only by you. Learn more »
launch autoscroll
font size
0
reset
guitar tuner
backing track
0:00
0:00
edit
Autoscroll
slow
fast
+/-
esc
set tempo
stop
Timing can be a bit tricky, just listen closely to the song.

      INTRO
G|------------------------|------------------------|------------------------|
D|------------------------|------------------------|------------------------|
A|--0---0---0--0---0---0--|------------------------|--2---2---2--2---2---2--|
E|------------------------|--2---2---2--2---2---2--|------------------------|


G|------------------------|------------------------|------------------------|
D|------------------------|------------------------|------------------------|
A|--2---2---2--2---2---2--|--0---0---0--0---0---0--|------------------------|
E|------------------------|------------------------|--2---2---2--2---2---2--|

                                                     PREVERSE
G|------------------------|------------------------|------------------------|
D|------------------------|------------------------|------------------------|
A|--2---2---2--2---2---2--|--2---2---2--2---2---2--|--5---5---5--5---5---5--|
E|------------------------|------------------------|------------------------|

                              VERSE 1
G|------------------------|---------------------------|
D|------------------------|---------------------------|
A|--2---2---2--2---2---2--|--------4----5----7--5--4--|
E|------------------------|--5--5-----5----5----------|

  
G|-------------4-------------|-------------6-------------|
D|--------4-----------4-2----|--------2-----------4-2----|
A|--2--2-----2------------4--|--4--4-----4------------4--|
E|---------------------------|---------------------------|


G|-------------7-------------|----------------------------|
D|--0--0--7--4--------4-2----|--------2----6----4---------|
A|------------------------4--|--4--4-----4----4----4--2-4-|
E|---------------------------|----------------------------|

                                                      VERSE 2
G|------------------------|------------------------|---------------------------|
D|--2---2---2--2---2---2--|--0---0---0--0---0---0--|---------------------------|
A|------------------------|------------------------|--------4----5----7--5--4--|
E|------------------------|------------------------|--5--5-----5----5----------|

  
G|-------------4-------------|-------------6-------------|
D|--------4-----------4-2----|--------2-----------4-2----|
A|--2--2-----2------------4--|--4--4-----4------------4--|
E|---------------------------|---------------------------|

 
G|-------------7-------------|----------------------------|
D|--0--0--7--4--------4-2----|--------2----6----4---------|
A|------------------------4--|--4--4-----4----4----4--2-4-|
E|---------------------------|----------------------------|

                                                      CHORUS
G|------------------------|------------------------|------------------------|
D|--2---2---2--2---2---2--|--0---0---0--0---0---0--|------------------------|
A|------------------------|------------------------|--0---0---0--0---0---0--|
E|------------------------|------------------------|------------------------|

 
G|------------------------|------------------------|------------------------|
D|------------------------|------------------------|------------------------|
A|------------------------|--2---2---2--2---2---2--|--2---2---2--2---2---2--|
E|--2---2---2--2---2---2--|------------------------|------------------------|

 
G|------------------------|------------------------|------------------------|
D|------------------------|------------------------|------------------------|
A|--0---0---0--0---0---0--|------------------------|--2---2---2--2---2---2--|
E|------------------------|--2---2---2--2---2---2--|------------------------|

                             INTERLUDE
G|------------------------|------------------------|------------------------|
D|------------------------|------------------------|------------------------|
A|--2---2---2--2---2---2--|--0---0---0--0---0---0--|------------------------|
E|------------------------|------------------------|--2---2---2--2---2---2--|

  
G|------------------------|------------------------|------------------------|
D|------------------------|------------------------|------------------------|
A|--2---2---2--2---2---2--|--2---2---2--2---2---2--|--0---0---0--0---0---0--|
E|------------------------|------------------------|------------------------|

   
G|------------------------|------------------------|------------------------|
D|------------------------|------------------------|------------------------|
A|------------------------|--2---2---2--2---2---2--|--2---2---2--2---2---2--|
E|--2---2---2--2---2---2--|------------------------|------------------------|


G|------------------------|------------------------|-------------------|
D|------------------------|------------------------|-------------------|
A|--5---5---5--5---5---5--|--2---2---2--2---2---2--|--0----------------|
E|------------------------|------------------------|-------------------|

                         VERSE 3
G|-------------------|---------------------------|-------------4-------------|
D|-------------------|---------------------------|--------4-----------4-2----|
A|-------------------|--------4----5----7--5--4--|--2--2-----2------------4--|
E|-------------------|--5--5-----5----5----------|---------------------------|

  
G|-------------6-------------|-------------7-------------|
D|--------2-----------4-2----|--0--0--7--4--------4-2----|
A|--4--4-----4------------4--|------------------------4--|
E|---------------------------|---------------------------|

  
G|----------------------------|------------------------|------------------------|
D|--------2----6----4---------|--2---2---2--2---2---2--|--0---0---0--0---0---0--|
A|--4--4-----4----4----4--2-4-|------------------------|------------------------|
E|----------------------------|------------------------|------------------------|

    VERSE 4
G|------------------------|------------------------|------------------------|
D|------------------------|------------------------|------------------------|
A|------------------------|--2---2---2--2---2---2--|--4---4---4--4---4---4--|
E|--5---5---5--5---5---5--|------------------------|------------------------|

 
G|------------------------|------------------------|------------------------|
D|------------------------|------------------------|--2---2---2--2---2---2--|
A|--5---5---5--5---5---5--|--4---4---4--4---4---4--|------------------------|
E|------------------------|------------------------|------------------------|

                             CHORUS
G|------------------------|------------------------|------------------------|
D|--0---0---0--0---0---0--|------------------------|------------------------|
A|------------------------|--0---0---0--0---0---0--|------------------------|
E|------------------------|------------------------|--2---2---2--2---2---2--|

  
G|------------------------|------------------------|------------------------|
D|------------------------|------------------------|------------------------|
A|--2---2---2--2---2---2--|--2---2---2--2---2---2--|--0---0---0--0---0---0--|
E|------------------------|------------------------|------------------------|

   
G|------------------------|------------------------|------------------------|
D|------------------------|------------------------|------------------------|
A|------------------------|--2---2---2--2---2---2--|--2---2---2--2---2---2--|
E|--2---2---2--2---2---2--|------------------------|------------------------|

   SOLO    
G|------------------------|------------------------|------------------------|
D|------------------------|------------------------|------------------------|
A|--0---0---0--0---0---0--|------------------------|--2---2---2--2---2---2--|
E|------------------------|--2---2---2--2---2---2--|------------------------|

  
G|------------------------|------------------------|------------------------|
D|------------------------|------------------------|------------------------|
A|--2---2---2--2---2---2--|--0---0---0--0---0---0--|------------------------|
E|------------------------|------------------------|--2---2---2--2---2---2--|

                                                      CHORUS
G|------------------------|------------------------|------------------------|
D|------------------------|------------------------|------------------------|
A|--2---2---2--2---2---2--|--2---2---2--2---2---2--|--0---0---0--0---0---0--|
E|------------------------|------------------------|------------------------|

  
G|------------------------|------------------------|------------------------|
D|------------------------|------------------------|------------------------|
A|------------------------|--2---2---2--2---2---2--|--2---2---2--2---2---2--|
E|--2---2---2--2---2---2--|------------------------|------------------------|

 
G|------------------------|------------------------|------------------------|
D|------------------------|------------------------|------------------------|
A|--0---0---0--0---0---0--|------------------------|--2---2---2--2---2---2--|
E|------------------------|--2---2---2--2---2---2--|------------------------|

                             OUTRO
G|------------------------|-------------------|-------------------|
D|------------------------|-------------------|-------------------|
A|--2---2---2--2---2---2--|--5----------------|--2----------------|
E|------------------------|-------------------|-------------------|

              
G|-------------------|-------------------||
D|-------------------|-------------------||
A|--0----------------|-------------------||
E|-------------------|-------------------||

            
            
Suggest correction
Creating personal tab
Creating personal tab
You can edit any tab online and save it as your Personal.

You can edit, replace or remove any tab part or add personal notes – all changes will be seen only by you.

Personal tabs can be accessed anytime from any device, even offline.
Learn more »
Give kudos to tab author, rate the tab!
1 2 3 4 5
comments
print report bad tab
guest
You may want to rate the tab now too:
select rating
Wanna post a correction for this tab? Suggest correction