Oops, an error
Loading. Please wait.

Red Light Bass Tab

version 1
version 1

Whole song

Interactive

4,850 views 1 this week
2 commentsread comments
1 2 3 4 5
accurate
x 6
add to favorites
launch autoscroll
font size
0
reset
guitar tuner
Tab Pro tools
  • play this tab
  • loop segment
  • change instrument
  • show fretboard
  • metronome
×
Best way to learn
"Red Light"
Autoscroll
slow
fast
+/-
esc
set tempo
stop
Difficulty
novice
Verse
G---------------------------------|
D---------------------------------|
A --------------------------------|               2x
E-7-7-7-7-7-7-7-7-----------------|


G-------------------------------------------------------|
D-------------------------------------------------------|
A-------------------------------------------------------|
E-4-2-4-2-4-2- -4-2-4-2-4-2- -4-2-4-2-4-2- -4-2-4-6-7-6-|


G-------------------------------------------|
D-------------------------------------------|
A-------------------------------------------|
E-4-2-4-2-4-2- -4-2-4-2-4-2--4-2-4-2-4-2-6~-|


Chorus
G----------------------------------------------------|
D----------------------------------9-9-9-9-9-9-9-9---|
A-9-9-9-9-9-9-9-9-7-7-7-7-7-7-7-7--------------------|
E----------------------------------------------------|

G--------------------------------------------------|
D--------------------------------------------------|
A-9-9-9-9-9-9-9-9-7-7-7-7-7-7-7-7------------------|
E----------------------------------7-7-7-7-7-7-7-7-|

G----------------------------------------------------|
D----------------------------------9-9-9-9-9-9-9-9---|
A-9-9-9-9-9-9-9-9-7-7-7-7-7-7-7-7--------------------|
E----------------------------------------------------|


G---------------------------------|
D----------------6-6--------------|
A----6-6-7-7-9-9----9-9-7-7-6-6---|
E-9-9-----------------------------|

G-------------------|
D-9--8--6-----------|
A-----------9--7--6-|
E-------------------|

Verse
G---------------------------------|
D---------------------------------|
A --------------------------------|               2x
E-7-7-7-7-7-7-7-7-----------------|


G-------------------------------------------------------|
D-------------------------------------------------------|
A-------------------------------------------------------|
E-4-2-4-2-4-2- -4-2-4-2-4-2- -4-2-4-2-4-2- -4-2-4-6-7-6-|


G-------------------------------------------|
D-------------------------------------------|
A-------------------------------------------|
E-4-2-4-2-4-2- -4-2-4-2-4-2--4-2-4-2-4-2-6~-|


Chorus
G----------------------------------------------------|
D----------------------------------9-9-9-9-9-9-9-9---|
A-9-9-9-9-9-9-9-9-7-7-7-7-7-7-7-7--------------------|
E----------------------------------------------------|

G--------------------------------------------------|
D--------------------------------------------------|
A-9-9-9-9-9-9-9-9-7-7-7-7-7-7-7-7------------------|
E----------------------------------7-7-7-7-7-7-7-7-|

G----------------------------------------------------|
D----------------------------------9-9-9-9-9-9-9-9---|
A-9-9-9-9-9-9-9-9-7-7-7-7-7-7-7-7--------------------|
E----------------------------------------------------|


G---------------------------------|
D----------------6-6--------------|
A----6-6-7-7-9-9----9-9-7-7-6-6---|
E-9-9-----------------------------|

G-------------------|
D-9--8--6-----------|
A-----------9--7--6-|
E-------------------|

Bridge
G-16--15--13--11--9--8-------------|
D----------------------------------|           2x
A----------------------------------|
E----------------------------------|


G-9--8--6------------------------------|
D----------9--8--6--9--8--6------------|
A-----------------------------9--7--6--|
E--------------------------------------|

G-6-6-8-8-9-9-11-11-13-13-11-11-9-9-8-8---|
D-----------------------------------------|
A-----------------------------------------|
E-----------------------------------------|


G--------------------|
D-9--8--6------------|
A-----------9--7--6--|
E--------------------|

G-------------------------------------------------------|
D-------------------------------------------------------|
A-6-6-6-6-6-6-6-6-7-7-7-7-7-7-7-7-6-6-6-6-6-6-6-6-9~----|
E-------------------------------------------------------|


G----------|
D----------|
A-7--6-----|
E-------9--|


Chorus
G---------------------------------|
D---------------------------------|
A --------------------------------|               2x
E-7-7-7-7-7-7-7-7-----------------|


G-------------------------------------------------------|
D-------------------------------------------------------|
A-------------------------------------------------------|
E-4-2-4-2-4-2- -4-2-4-2-4-2- -4-2-4-2-4-2- -4-2-4-6-7-6-|


G-------------------------------------------|
D-------------------------------------------|
A-------------------------------------------|
E-4-2-4-2-4-2- -4-2-4-2-4-2--4-2-4-2-4-2-6~-|


Chorus/outro
G----------------------------------------------------|
D----------------------------------9-9-9-9-9-9-9-9---|
A-9-9-9-9-9-9-9-9-7-7-7-7-7-7-7-7--------------------|
E----------------------------------------------------|

G--------------------------------------------------|
D--------------------------------------------------|
A-9-9-9-9-9-9-9-9-7-7-7-7-7-7-7-7------------------|
E----------------------------------7-7-7-7-7-7-7-7-|

G----------------------------------------------------|
D----------------------------------9-9-9-9-9-9-9-9---|
A-9-9-9-9-9-9-9-9-7-7-7-7-7-7-7-7--------------------|
E----------------------------------------------------|


G---------------------------------|
D----------------6-6--------------|
A----6-6-7-7-9-9----9-9-7-7-6-6---|
E-9-9-----------------------------|

G----------------------|
D-9--8--6--------------|
A-----------9--7--6----|
E--------------------7-|
End
Listen for timing and enjoy
comments
print report bad tab
2 comments total.
0 reply
Daniel Pearce wrote on July 21 2006, 05:39 am

The Strokez r my best band, gud tab mate (even though I'm not a Bass player myself).

0 reply
beaver123 wrote on August 6 2007, 07:00 am

Hey, everyone.. i know some parts are wrong.... like the chorus where it goes from F#, to e to b and then it does it again but plays the b up an octave.. i tabbed it that way because it sounds better and is definitely more interesting for the bassist to play, other then that i'd say it's pretty good

I want to post or [tab]
guest
You may want to rate the tab now too:
select rating
Please do not post tabs as comments. Select "correction" instead!