Oops, an error
Loading. Please wait.
We have an official Red Light tab made by UG professional guitarists. Check out the tab »
×
1,259 views 3 this week
2 commentsread comments
1 2 3 4 5
x 3
add to favorites
×
Save as Personal and add changes to this tab that will be seen only by you. Learn more ›
×
You can save this tab as Personal to edit and correct it or add notes. All changes will be seen only by you. Learn more »
launch autoscroll
font size
0
reset
guitar tuner
edit
Autoscroll
slow
fast
+/-
esc
set tempo
stop
Author
Difficulty
Red Light by The Strokes

E------------------------------|
A-2--2-2--2-2--2-2--2-2-2-2--2-|
D------------------------------|X2
G------------------------------|

"Do it for the people..."
E-----------------|
A-----------------|
D-1--2--1-2-1-2-1-|
G-----------------|X3

E------------|
A------------|
D-2--1-2---4-|
G--------1---|

Pre-chorus:
"How to make your way..."
E-------------------------------------------tp222222222-|
A----------------------------4--2-4-2-4-2-1-------------|
D-4--2-4-2-4-2--2--1-2-1-2-1----------------------------|
G-------------------------------------------------------|

chorus:
"Well let's say you made a deal..."
E-----------------------------------------------------|
A------------------------------tp22222222222222222222-|X3
D-tp444444444444-tp22222222222------------------------|
G-----------------------------------------------------|

Bridge:
"all the girls..."
E-2-4--------------------------------------------------|
A-----1--2-4-------------------4-2-1-2-----------------|
D------------1-2--4--2--4--2-1-------------------4-2-1-|
G---------------------------------------4--3--1--------|

Verse 2:
"Can't you see the skys..."
E------------------------------|
A-2--2-2--2-2--2-2--2-2-2-2--2-|
D------------------------------|X2
G------------------------------|

"Do it for the people..."
E-----------------|
A-----------------|
D-1--2--1-2-1-2-1-|
G-----------------|X3

E------------|
A------------|
D-2--1-2---4-|
G--------1---|

Pre-chorus:
"are you coming..."
E-------------------------------------------tp222222222-|
A----------------------------4--2-4-2-4-2-1-------------|
D-4--2-4-2-4-2--2--1-2-1-2-1----------------------------|
G-------------------------------------------------------|

chorus:
"well i saw your face..."
E-----------------------------------------------------|
A------------------------------tp22222222222222222222-|X3
D-tp444444444444-tp22222222222------------------------|
G-----------------------------------------------------|

Bridge:
"I would cheat & lie & steal..."
E-2-4--------------------------------------------------|
A-----1--2-4-------------------4-2-1-2-----------------|
D------------1-2--4--2--4--2-1-------------------4-2-1-|
G---------------------------------------4--3--1--------|

Interlude Part one
"I was waitin'..."
(this part is so high that is sounds like guitar but it's actually Nikolai playing this part)
E--------------------------------------------------------------|
A--------------------------------------------------------------|
D-------------------------------------------------------4--2-1-|
G-16-15-13-11-9-8--16-15-13-11-9-8--9-8-6--4-3-1--4-3-1--------|

"Right by my side."
E-2-4--------------------------------------------------|
A-----1--2-4-------------------4-2-1-2-----------------|
D------------1-2--4--2--4--2-1-------------------4-2-1-|
G---------------------------------------4--3--1--------|

Interlude Part two:
"Oh please, leave me alone..."
E---------------------------------------|
A---------------------------------------|
D-tp1111111111111111-tp2222222222222222-|
G---------------------------------------|
(1111's are ones)
"Forget the past"
E----------------------------------------|
A--------------------------------------4-|
D-tp1111111111111111-tp4444444444-2~-1---|
G----------------------------------------|

Verse three:
"Two can be complete..."
E------------------------------|
A-2--2-2--2-2--2-2--2-2-2-2--2-|
D------------------------------|X2
G------------------------------|

"Do it for the people..."
E-----------------|
A-----------------|
D-1--2--1-2-1-2-1-|
G-----------------|X3

E------------|
A------------|
D-2--1-2---4-|
G--------1---|

Pre-chorus:
"The Light is red..."
E-------------------------------------------tp222222222-|
A----------------------------4--2-4-2-4-2-1-------------|
D-4--2-4-2-4-2--2--1-2-1-2-1----------------------------|
G-------------------------------------------------------|

chorus:
Enter in at "Hate your friends new friends..."
E-----------------------------------------------------|
A------------------------------tp22222222222222222222-|X3
D-tp444444444444-tp22222222222------------------------|
G-----------------------------------------------------|

Ending:
"The sky is not the limit..."
E-2-4--------------------------------------------------|
A-----1--2-4-------------------4-2-1-2-----------------|
D------------1-2--4--2--4--2-1-------------------4-2-1-|
G---------------------------------------4--3--1--------|

Ending Note:
E-----|
A-pm2-|
D-----|
G-----|

            
            
Suggest correction
Creating personal tab
Creating personal tab
You can edit any tab online and save it as your Personal.

You can edit, replace or remove any tab part or add personal notes – all changes will be seen only by you.

Personal tabs can be accessed anytime from any device, even offline.
Learn more »
Give kudos to tab author, rate the tab!
1 2 3 4 5
comments
print report bad tab
2 comments total.
0 reply
lethal_trombone 10 Jun 05, 2008 06:55 AM

Dude, this is a good tab but it's upside down. Starting from the bottom it goes EADG, not GDAE. lol i new way to think i guess =P

0 reply
lethal_trombone 10 Jun 05, 2008 06:55 AM

Dude, this is a good tab but it's upside down. Starting from the bottom it goes EADG, not GDAE. lol i new way to think i guess =P

guest
You may want to rate the tab now too:
select rating
Wanna post a correction for this tab? Suggest correction