Oops, an error
Loading. Please wait.
352,239 views 609 this week
21 commentsread comments
1 2 3 4 5
x 175
add to favorites
×
Save as Personal and add changes to this tab that will be seen only by you. Learn more ›
launch autoscroll
font size
0
reset
guitar tuner
backing track
0:00
0:00
Autoscroll
slow
fast
+/-
esc
set tempo
stop
[Intro]

G|---------------------------------------------------------------|
D|9-9-9-9-9-9-9-9-9-9-9-9-9-9-9-9-9-9-9-9-9-9-9-9-9-9-9-9-9-9-9-9|
A|---------------------------------------------------------------|
E|---------------------------------------------------------------|

G|---------------------------------------------------------------|
D|---------------------------------------------------------------|
A|--------------------------------7-7-7-7-7-7-7-7-7-7-7-7-7-7-7-7| x5
E|7-7-7-7-7-7-7-7-7-7-7-7-7-7-7-7--------------------------------|

The beginning part of the verse has only lead guitar.
Bass comes in after "...I know your not boring." 

[Verse]

G|---------------------------------------------------------------|
D|---------------------------------------------------------------|
A|--------------------------------7-7-7-7-7-7-7-7-7-7-7-7-7-7-7-7| x5
E|7-7-7-7-7-7-7-7-7-7-7-7-7-7-7-7--------------------------------|

Another break with only lead then...                             

G|--------------------------------------------------------7-7-6-6-4-4----|
D|------------------5-5---5---7-7---7---5-5---5---7-7---7-------------4-4|
A|2-2---2---4-4-5-5------------------------------------------------------| X3
E|-----------------------------------------------------------------------|

G|--------------------------------------------------------7-7-6-6-4-4-----|
D|------------------5-5-5-5---7-7-7-7---5-5-5-5---7-7-7-7-------------4-4-|
A|2-2-2-2---4-4-5-5-------------------------------------------------------| X2
E|------------------------------------------------------------------------|


[Chorus]

G|------------------------------------------------------------------------|
D|9-9-9-9-9-9-9-9-9-9-9-9-9-9-9-9-----------------------------------------|
A|--------------------------------7-7-7-7-7-7-7-7-7-7-7-7-7-7-7-7---------| X2
E|------------------------------------------------------------------------|

G|------------------------------------------------------------------------|
D|------------------------------------------------------------------------|
A|--------------------------------7-7-7-7-7-7-7-7-7-7-7-7-7-7-7-7---------|
E|7-7-7-7-7-7-7-7-7-7-7-7-7-7-7-7-----------------------------------------|

G|------------------------------------------------------------------------|
D|9-9-9-9-9-9-9-9-9-9-9-9-9-9-9-9-----------------------------------------|
A|--------------------------------7-7-7-7-7-7-7-7-7-7-7-7-7-7-7-7---------| X2
E|------------------------------------------------------------------------|


[Verse]

G|---------------------------------------------------------------|
D|---------------------------------------------------------------|
A|--------------------------------7-7-7-7-7-7-7-7-7-7-7-7-7-7-7-7| x4
E|7-7-7-7-7-7-7-7-7-7-7-7-7-7-7-7--------------------------------|                            

G|--------------------------------------------------------7-7-6-6-4-4----|
D|------------------5-5---5---7-7---7---5-5---5---7-7---7-------------4-4|
A|2-2---2---4-4-5-5------------------------------------------------------| x3
E|-----------------------------------------------------------------------|

G|--------------------------------------------------------7-7-6-6-4-4-----|
D|------------------5-5-5-5---7-7-7-7---5-5-5-5---7-7-7-7-------------4-4-|
A|2-2-2-2---4-4-5-5-------------------------------------------------------| X2
E|------------------------------------------------------------------------|


[Outro]

    until the end
G|---------------------------------------------------------------|
D|9--------------------------------------------------------------|
A|---------------------------------------------------------------|  X1
E|---------------------------------------------------------------|
Suggest correction
comments
print report bad tab
21 comments total. Showing first comments.
+4 reply
Vox 151 Mar 06, 2004 07:00 PM

i like this tab it sounds right

+3 reply
Suicide Machine 50 May 02, 2004 08:00 PM

ok on the video the bassist plays the verse somewhere around the 17, 15th, 14th, and 12th frets on A. i think. i watched when it panned on his picking hand.

+2 reply
soapboxkidsbass 10 May 13, 2004 08:00 PM

Yeah thats kinda right. The tab goes like this i think.

E:7 7 7 9 9 9 10 10 10 then drops to A
A: 10 10 10 12 12 12 10 10 10 then drops to D
D: 12 12 11 11 9 9 the up to A for the end which is 9 9.

guest
You may want to rate the tab now too:
select rating
Wanna post a correction for this tab? Suggest correction