Oops, an error
Loading. Please wait.

Reptilia Bass Tab

version 5
6,658 views 6 this week
3 commentsread comments
1 2 3 4 5
x 5
add to favorites
launch autoscroll
font size
0
reset
guitar tuner
×
Best way to learn
"Reptilia"
Autoscroll
slow
fast
+/-
esc
set tempo
stop
Tabbed by:Eddie M.
email:shortguy2791@netscape.net
This is basically my first tab, and im pretty confident its right.
Standard tunning: G,D,A,E

Intro
G|---------------------------------------------------------------|
D|999999999999999999999999999999999999999999999999999999999999999|
A|---------------------------------------------------------------|
E|---------------------------------------------------------------|

G|----------------------------------------------------------------|
D|----------------9999999999999999----------------9999999999999999|
A|7777777777777777----------------7777777777777777----------------|
E|----------------------------------------------------------------|

G|------------------------------------------------|
D|----------------9999999999999999----------------|
A|7777777777777777----------------7777777777777777|
E|------------------------------------------------|

Then pause for guitar solo, then bass comes in:

G|----------------------------------------------------------------|
D|9999999999999999----------------9999999999999999----------------|
A|----------------7777777777777777----------------7777777777777777| 2x
E|----------------------------------------------------------------|

Then pause for guitar solo
G|---------------------------------------------------------------|
D|---------------------------------------------------------------|
A|-----------------10-10--10-12-12--12-10-10--10-12-12--12-17-17-|
E|7-7--7-9-9-10-10-----------------------------------------------|
                                                                    3x
G|----------------------|
D|----------------------|
A|16-16-14-14-12--------|
E|----------------------|

Then 4th time through:
G|----------------------------------------------------------------------|
D|----------------------------------------------------------------------|
A|--------------10101010-12121212-10101010-12121212-17-17-16-16-14-14-12| 2x
E|7777-9999-1010--------------------------------------------------------|

Then immideately after:
G|----------------------------------------------------------------|
D|9999999999999999----------------9999999999999999----------------|
A|----------------7777777777777777----------------7777777777777777| 5x
E|----------------------------------------------------------------|

Then pause for guitar solo
G|---------------------------------------------------------------|
D|---------------------------------------------------------------|
A|-----------------10-10--10-12-12--12-10-10--10-12-12--12-17-17-|
E|7-7--7-9-9-10-10-----------------------------------------------|
                                                                    3x
G|----------------------|
D|----------------------|
A|16-16-14-14-12--------|
E|----------------------|

Then 4th time through:
G|----------------------------------------------------------------------|
D|----------------------------------------------------------------------|
A|--------------10101010-12121212-10101010-12121212-17-17-16-16-14-14-12| 2x
E|7777-9999-1010--------------------------------------------------------|

G|---------------------------------|
D|999999999999999999999999999999999|
A|---------------------------------|
E|---------------------------------|

And thats it...pretty sure its right...email me for questions.
PLEASE RATE!
Suggest correction
comments
print report bad tab
3 comments total.
0 reply
MaskedRaccoon 10 Dec 29, 2005 06:37 AM

Well, You just need to listen to the song a little better. You didnt make it 100% accurate. But you DO have every part needed for the song, just not in the right places.

0 reply
Nicklol 10 Sep 05, 2008 11:30 AM

¬,.,¬

0 reply
chuckyv2 54 Jul 06, 2015 09:14 AM

G|-----------------------------------------------------------------------|
D|-9-9--9-------------------7-7--7-----------7-7--7--12-12-11-11-9-9-7-7-|
A|--------5-5-7-7-10-10--10--------10-10--10-----------------------------|
E|-----------------------------------------------------------------------|

This is the bridge section.

guest
You may want to rate the tab now too:
select rating
Wanna post a correction for this tab? Suggest correction