Oops, an error
Loading. Please wait.
83,087 views 18 this week
30 commentsread comments
1 2 3 4 5
x 62
add to favorites
×
Save as Personal and add changes to this tab that will be seen only by you. Learn more ›
×
You can save this tab as Personal to edit and correct it or add notes. All changes will be seen only by you. Learn more »
save as personal
new!
launch autoscroll
font size
0
reset
how to read this tab
guitar tuner
backing track
0:00
0:00
Autoscroll
slow
fast
+/-
esc
set tempo
stop
Author
[Intro]
(guitar 1)
e|---------------------------------------------------------------------|
b|---------------------------------------------------------------------|
g|--7------9-----------------------------------------------------------|
d|--9-x16--9-x16-------------------------------------------------------|(x4)
a|--9------7-----------------------------------------------------------|
E|---------------------------------------------------------------------|

(guitar 2)
e|---------------------------------------------------------------------|
b|---------------------------------------------------------------------|
g|-77-7----------------------------------------------------------------|
d|-xx-x-9-7------------------------------------------------------------|(x4)
a|-xx-x-x-x-(x2)--11-11-11-14-17-(x2)----------------------------------|
E|-77-7-7-7------------------------------------------------------------|

[Verse]
(guitar 2)
e|---------------------------------------------------------------------|
b|---------------------------------------------------------------------|
g|---------------------------------------------------------------------|
d|-12-12-12------------------------------------------------------------|(x4)
a|----------14-12--(x2)--11-11-11-14-17-(x2)---------------------------|
E|---------------------------------------------------------------------|

(guitar 1)
e|---------------------------------------------------------------------|
b|---------------------------------------------------------------------|
g|--7------9-----------------------------------------------------------|
d|--9-x16--9-x16-------------------------------------------------------|(x2)
a|--9------7-----------------------------------------------------------|
E|---------------------------------------------------------------------|
                             these 2 are in unison
(guitar 2)
e|---------------------------------------------------------------------|
b|---------------------------------------------------------------------|
g|-77-7----------------------------------------------------------------|
d|-xx-x-9-7------------------------------------------------------------|(x2)
a|-xx-x-x-x-(x2)--11-11-11-14-17-(x2)----------------------------------|
E|-77-7-7-7------------------------------------------------------------|

[Interlude]
(guitar 1)
e|---------------------------------------------------------------------|
b|-15-15-15\10-10-10/12-12-12/14-14-14\12-12-12/14-14-14\10-10-10/15-15|
g|--x--x--x\x--x---x/-x--x--x/-x--x--x\-x--x--x/-x--x--x\x--x---x/-x--x|
d|--x--x--x\x--x---x/-x--x--x/-x--x--x\-x--x--x/-x--x--x\x--x---x/-x--x|(x6)
a|-14-14-14\9--9---9/10-10-10/12-12-12\10-10-10/12-12-12\9--9---9/14-14|
E|---------------------------------------------------------------------|

(guitar 2) 
(after (x2) of thing above start this)
e|-7----10-9------9-7---7-10-9---12-9-7---7-10-9----12-9-------9-10-7---9|
b|--7-10-----7-10-----8-------10--------8--------10------7-8-7--------7--|
g|-----------------------------------------------------------------------|
d|-----------------------------------------------------------------------|(x4)
a|-----------------------------------------------------------------------|
E|-----------------------------------------------------------------------|

[Solo]
(guitar 1)
e|---------------------------------------------------------------------|
b|--9-7---7---------------7-9-7---7------------------------------------|
g|------9---9-7-9-7-6-7-6-------9---9-7-9-7-6-7-6-4--------------------|(x4)
d|---------------------------------------------------------------------|
a|---------------------------------------------------------------------|
E|---------------------------------------------------------------------|

e|-----7----------------10b-7-------------7--7/12b-10------------------|
b|-10b---10p7h9p7----7--------10p7h9p7-----7----------13h110h12p10-----|
g|----------------10--7----------------10--------------------------13--|
d|---------------------------------------------------------------------|
a|---------------------------------------------------------------------|
E|---------------------------------------------------------------------|

e|-10---12b------------------------------------------------------------|
b|---10-----13p10h12-----9-7---7---------------7-9-7---7---------------|
g|-------------------13b-----9---9-7-9-7-6-7-6-------9--9-7-4~~~-------|
d|---------------------------------------------------------------------|
a|---------------------------------------------------------------------|
E|---------------------------------------------------------------------|

e|---------------------------------------------------------------------|
b|--------------------------------------------------999999b9b9b--------|
g|--------------------9---9---9---9-----------------999999b9b9b--------|
d|----9---9---9---9---9---9---9---9---9---9---9---9-999999b9b9b--------|
a|----9---9---9---97777777777777777---9---9---9---9--------------------|
E|-7777777777777777----------------7777777777777777--------------------|
 pm--- --- --- --- --- --- --- --- --- --- --- ---

[Instrumental]
(guitar 1)
e|---------------------------------------------------------------------|
b|---------------------------------------------------------------------|
g|--7------9-----------------------------------------------------------|
d|--9-x16--9-x16-------------------------------------------------------|(x4)
a|--9------7-----------------------------------------------------------|
E|---------------------------------------------------------------------|
                            these 2 are in unison
(guitar 2)
e|---------------------------------------------------------------------|
b|---------------------------------------------------------------------|
g|-77-7----------------------------------------------------------------|
d|-xx-x-9-7------------------------------------------------------------|(x4)
a|-xx-x-x-x-(x2)--11-11-11-14-17-(x2)----------------------------------|
E|-77-7-7-7------------------------------------------------------------|

[Interlude]
(guitar 1)
e|---------------------------------------------------------------------|
b|-15-15-15\10-10-10/12-12-12/14-14-14\12-12-12/14-14-14\10-10-10/15-15|
g|--x--x--x\x--x---x/-x--x--x/-x--x--x\-x--x--x/-x--x--x\x--x---x/-x--x|
d|--x--x--x\x--x---x/-x--x--x/-x--x--x\-x--x--x/-x--x--x\x--x---x/-x--x|(x6)
a|-14-14-14\9--9---9/10-10-10/12-12-12\10-10-10/12-12-12\9--9---9/14-14|
E|---------------------------------------------------------------------|

(guitar 2) 
(after (x2) of thing above start this)
e|-7----10-9------9-7---7-10-9---12-9-7---7-10-9----12-9-------9-10-7---9|
b|--7-10-----7-10-----8-------10--------8--------10------7-8-7--------7--|
g|-----------------------------------------------------------------------|
d|-----------------------------------------------------------------------|(x4)
a|-----------------------------------------------------------------------|
E|-----------------------------------------------------------------------|
on last time bend the e|-9-| 

[Ending]
(guitar 1)             (guitar2)
e|-----------|-----------7-----------|     
b|-----------|-----------7-----------|        
g|--7--------|-----------7-----------|
d|--9--------|-----------------------|
a|--9--------|-----------------------|
E|-----------|-----------------------|


************************************

| x  Dead note
| /  Slide up
| \  Slide down
| b  Bend
| h  Hammer-on
| p  Pull-off
| ~  Vibrato

************************************
Suggest correction
comments
print report bad tab
30 comments total. Showing first comments.
+2 reply
jskoorb87 10 Apr 12, 2004 08:00 PM

e|-------------------------------------|
B|-------------------------------------|
G|-77-7-----77-7----------7--------7---|
D|-----97-------97---66-69----66-69----|
A|-------------------------------------|
E|-------------------------------------|
I just think this is a little easier for the verse.

0 reply
altered 10 Apr 14, 2004 08:00 PM

great tab the others suck but you seemed to pull this tab off real well

0 reply
dragonkid126 10 Apr 21, 2004 08:00 PM

yeah, nice job. looks like the way they play it in the video

guest
You may want to rate the tab now too:
select rating
Wanna post a correction for this tab? Suggest correction