Oops, an error
Loading. Please wait.
49,488 views 18 this week
2 commentsread comments
1 2 3 4 5
x 13
add to favorites
launch autoscroll
font size
0
reset
how to read this tab
guitar tuner
backing track
0:00
0:00
Autoscroll
slow
fast
+/-
esc
set tempo
stop
Author
Guitar 1 - Nick Valensi
Guitar 2 - Albert Hammond Jr.
0:00
(Bass intro)
0:13
Intro

Guitar 1
e|------------------|
B|------------------|
G|---7-------9------| X4
D|---9—X16---9-X16--|
A|---9-------7------|
E|------------------|

Guitar 2
e|------------------|
B|------------------|
G|---7-7-x-7--------| X2
D|-----------9-7----|
A|------------------|
E|------------------|
     				Play 4 times
e|------------------|
B|------------------|
G|------------------| X2
D|------------------|
A|-11-11-x-11-14-17-|
E|------------------|

Verse (No Guitar 1 at the start)
0:37
Guitar 2
e|------------------|
B|------------------|
G|---7-7-7----------| X2
D|---------9-7------|
A|------------------|
E|------------------|
     				Play two times
e|------------------|
B|------------------|
G|------------------| X2
D|------------------|
A|-11-11-11-14-17---|
E|------------------|

(Bass joins in)
0:49
e|------------------|
B|------------------|
G|---7-7-7----------| X2
D|---------9-7------|
A|------------------|
E|------------------|
     				Play two times
e|------------------|
B|------------------|
G|------------------| X2
D|------------------|
A|-11-11-11-14-17---|
E|------------------|

Guitar 1 comes in with:
1:01
Guitar 1
e|------------------|
B|------------------|
G|---7-------9------| X2
D|---9—X16---9-X16--|
A|---9-------7------|
E|------------------|
while Guitar 2 plays:
e|------------------|
B|------------------|
G|---7-7-7----------| X2
D|---------9-7------|
A|------------------|
E|------------------|
     				Play two times
e|------------------|
B|------------------|
G|------------------| X2
D|------------------|
A|-11-11-11-14-17---|
E|------------------|

Pre-chorus
1:13
Guitar 1
e|------------------------------------------------------------|
B|15-15--x-15--10-10-x-10--12-12-x-12--14-14-x-14--12-12-x-12-|
G|-x--x--x-x---x--x--x-x---x--x--x--x---x--x-x-x---x--x--x-x--|
D|-x--x--x—x---x--x--x-x---x--x--x--x---x--x-x-x---x--x--x-x--|
A|14-14--x-14--9--9--x-9---10-10-x-10--12-12-x-12--10-10-x-10-|
E|------------------------------------------------------------|

e|------------------------------------|
B|-14-14-x-14--10-10-x-10--15-15-x-15-|
G|--x--x-x-x---x--x--x-x---x--x--x-x—-|   X2
D|--x--x-x-x---x--x--x-x---x--x--x-x--|
A|-12-12-x-12--9--9--x-9--14-14--x-14-|
E|------------------------------------|
(Bass joins in on the second time) 1:20

Chorus
1:25
Guitar 1

e|------------------------------------------------------------|
B|15-15--x-15--10-10-x-10--12-12-x-12--14-14-x-14--12-12-x-12-|
G|-x--x--x-x---x--x--x-x---x--x--x--x---x--x-x-x---x--x--x-x--|
D|-x--x--x—x---x--x--x-x---x--x--x--x---x--x-x-x---x--x--x-x--|
A|14-14--x-14--9--9--x-9---10-10-x-10--12-12-x-12--10-10-x-10-|
E|------------------------------------------------------------|

e|------------------------------------|
B|-14-14-x-14--10-10-x-10--15-15-x-15-|
G|--x--x-x-x---x--x--x-x---x--x--x-x—-|   X4
D|--x--x-x-x---x--x--x-x---x--x--x-x--|
A|-12-12-x-12--9--9--x-9--14-14--x-14-|
E|------------------------------------|

Guitar 2

e|-10-----10-9-----9------------9--12-9--------10-|
B|---10-12----10-12--12-8-10-12--10-----12-8-12---|
G|------------------------------------------------|
D|------------------------------------------------|
A|------------------------------------------------|
E|------------------------------------------------|

e|-9--12-9-------------9-----9-|
B|--10-----12-8-10-12---10-12--|
G|-----------------------------| X4
D|-----------------------------|
A|-----------------------------|
E|-----------------------------|

Solo
1:50
Guitar 1
e|--------------------------------------------------|
B|-9-7-7--------------7-9-7-7-----------------------|
G|----9-9-7-9-7-6-7-6------9-9-7-9-7-6-6h7-6--------|
D|------------------------------------------9-------|
A|--------------------------------------------------|
E|--------------------------------------------------|

e|--------------------------------------------------|
B|-9-7-7--------------7-9-7-7-----------------------|
G|----9-9-7-9-7-6-7-6------9-9-7-9-7-6--------------|
D|-------------------------------------9------------|
A|--------------------------------------------------|
E|--------------------------------------------------|


e|---------------------10-9-------------------------|
B|-12-12-10p9--------------10p9---------------------|
G|-----------11p9-11-----------11p9-11--------------|
D|------------------12-----------------12-----------|
A|--------------------------------------------------|
E|--------------------------------------------------|

e|-12^-10p9-----------12^-10p9--------------------|
B|---------12p10-12-9----------12-10\7------------|
G|------------------------------------------------|
D|------------------------------------------------|
A|------------------------------------------------|
E|------------------------------------------------|

e|------------------------------------------------|
B|-9-7-7---------------7-9-7-7--------------------|
G|----9-9-7-9-7-6-7-6-------9-9-7-----------------|
D|-------------------------------9----------------|
A|------------------------------------------------|
E|------------------------------------------------|

(Bass interlude bit) 2:14

Verse
2:26
Guitar 1
e|------------------|
B|------------------|
G|---7-------9------| X4
D|---9—X16---9-X16--|
A|---9-------7------|
E|------------------|
while Guitar 2 plays:
e|------------------|
B|------------------|
G|---7-7-7----------| X2
D|---------9-7------|
A|------------------|
E|------------------|
     				Play 4 times
e|------------------|
B|------------------|
G|------------------| X2
D|------------------|
A|-11-11-11-14-17---|
E|------------------|

Pre-chorus
2:51
Guitar 1
e|------------------------------------------------------------|
B|15-15--x-15--10-10-x-10--12-12-x-12--14-14-x-14--12-12-x-12-|
G|-x--x--x-x---x--x--x-x---x--x--x--x---x--x-x-x---x--x--x-x--|
D|-x--x--x—x---x--x--x-x---x--x--x--x---x--x-x-x---x--x--x-x--|
A|14-14--x-14--9--9--x-9---10-10-x-10--12-12-x-12--10-10-x-10-|
E|------------------------------------------------------------|

e|------------------------------------|
B|-14-14-x-14--10-10-x-10--15-15-x-15-|
G|--x--x-x-x---x--x--x-x---x--x--x-x—-|   X2
D|--x--x-x-x---x--x--x-x---x--x--x-x--|
A|-12-12-x-12--9--9--x-9--14-14--x-14-|
E|------------------------------------|
(Bass joins in on the second time) 2:57

Chorus
3:03
Guitar 1

e|------------------------------------------------------------|
B|15-15--x-15--10-10-x-10--12-12-x-12--14-14-x-14--12-12-x-12-|
G|-x--x--x-x---x--x--x-x---x--x--x--x---x--x-x-x---x--x--x-x--|
D|-x--x--x—x---x--x--x-x---x--x--x--x---x--x-x-x---x--x--x-x--|
A|14-14--x-14--9--9--x-9---10-10-x-10--12-12-x-12--10-10-x-10-|
E|------------------------------------------------------------|

e|------------------------------------|
B|-14-14-x-14--10-10-x-10--15-15-x-15-|
G|--x--x-x-x---x--x--x-x---x--x--x-x—-|   X4
D|--x--x-x-x---x--x--x-x---x--x--x-x--|
A|-12-12-x-12--9--9--x-9--14-14--x-14-|
E|------------------------------------|

Guitar 2

e|-10-----10-9-----9------------9--12-9--------10-|
B|---10-12----10-12--12-8-10-12--10-----12-8-12---|
G|------------------------------------------------|
D|------------------------------------------------|
A|------------------------------------------------|
E|------------------------------------------------|

e|-9--12-9-------------9-----9-|
B|--10-----12-8-10-12---10-12--|
G|-----------------------------| X4
D|-----------------------------|
A|-----------------------------|
E|-----------------------------|
(Bend the 9 on the last one and keep it up till the ending chords)3:27-3:33
End:
3:33
Guitar 1

e|-----------------------------|
B|-----------------------------|
G|-7---------------------------|
D|-9---------------------------|
A|-9---------------------------|
E|-----------------------------|

Guitar 2

e|-7----------------------------|
B|-7----------------------------|
G|-7----------------------------|
D|------------------------------|
A|------------------------------|
E|------------------------------|

By Berk... send all comments to berk90@wanadoo.nl
Suggest correction
comments
print report bad tab
2 comments total.
0 reply
Mr Meatwad 1774 20 Apr 09, 2005 08:00 PM

Only played part of it, but for the most part it sounds right, besides the

7
7
9

at the beginning. 4 stars.

0 reply
Supagannet_666 10 Sep 17, 2008 05:07 AM

Bang on! The start is right aswell Mr Meatwad, that chord looks a bit wierd but it's definitely right..

The little chorus riff is pretty tricky, but the tab is spot on, possibly could do with a little spacing out, but that's all I could say. Thanks a bundle, I love this song.
5*
=D

guest
You may want to rate the tab now too:
select rating
Wanna post a correction for this tab? Suggest correction