Oops, an error
Loading. Please wait.

Reptillia tab

version 1
version 1

Whole song

Interactive

19,673 views 15 this week
2 commentsread comments
1 2 3 4 5
x 10
add to favorites
×
Save as Personal and add changes to this tab that will be seen only by you. Learn more ›
×
You can save this tab as Personal to edit and correct it or add notes. All changes will be seen only by you. Learn more »
launch autoscroll
font size
0
reset
how to read this tab
guitar tuner
edit
Autoscroll
slow
fast
+/-
esc
set tempo
stop
Author
Difficulty
The Main RIff
e|-------------------------------------------------------|
B|-------------------------------------------------------|
G|----|-7-7--7---4--|-----------|---------4--7|----------|
D|----|-----------7-|X2---------|-6-6--6------|X2--------|
A|-------------------------------------------------------|
E|-------------------------------------------------------|
Suggest correction
Creating personal tab
Creating personal tab
You can edit any tab online and save it as your Personal.

You can edit, replace or remove any tab part or add personal notes – all changes will be seen only by you.

Personal tabs can be accessed anytime from any device, even offline.
Learn more »
comments
print report bad tab
2 comments total.
+2 reply
klysandral 231 Aug 06, 2010 11:59 AM

seriously?

0 reply
ccoyle15 54 Mar 25, 2013 07:36 PM

way to put some time into this

sarcastic comment

and the riff is easier to play like this

e|---------------------------------------------------------|
B|---------------------------------------------------------|
G|----|-7-7--7-------|-----------|-------------7|----------|
D|----|---------9--7-|X2---------|-6-6--6--9----|X2--------|
A|---------------------------------------------------------|
E|---------------------------------------------------------|

guest
You may want to rate the tab now too:
select rating
Wanna post a correction for this tab? Suggest correction