Oops, an error
Loading. Please wait.

Room On Fire Bass Tab

6,476 views 15 this week
no commentswrite comment
1 2 3 4 5
worth learning
x 4
add to favorites
launch autoscroll
font size
0
reset
guitar tuner
Tab Pro tools
  • play this tab
  • loop segment
  • change instrument
  • show fretboard
  • metronome
Autoscroll
slow
fast
+/-
esc
set tempo
stop
Difficulty
intermediate
-------------------------------------------------------------------------------
ROOM ON FIRE ALBUM – The Strokes
-------------------------------------------------------------------------------

Tabbed By : Spartan101
e-mail: eligeek101@sbcglobal.net

Tuning: Standard (E, A, D, G)

ALBUM ORDER:
1.  WHAT EVER HAPPENED?
2.  REPTILIA
3.  AUTOMATIC STOP
4.  12:51
5.  YOU TALK WAY TOO MUCH
6.  BETWEEN LOVE & HATE
7.  MEET ME IN THE BATHROOM
8.  UNDER CONTROL
9.  THE WAY IT IS
10. THE END HAS NO END
11. I CAN’T WIN


First I’d like to comment that if there’s one bunch of songs that got me into Green Day
these. This is one their best albums, arguably the best one. I tabbed these songs after
the ones by a bunch of the other tabbers. I compiled them and this is what I got.

NOTES
~if there’s an x# on the right of a bar, pay that individual bar the number of times
then continue on to the next bar. If there is no x# then just play the bar once

~if I put an (x#) next to the name of the song sections, (e.g. 1st VERSE) play that
section of the song, not just one line, the number of times indicated. If there’s no x# then
play the section once before continuing on.

~I’m not going to put the play order down after each song so I’ll just put the parts of
song in order. If a part is repeated, I will say to repeat a certain section and the
where it is to be repeated. If a section is played less or more times than before, I 
just indicate how times it needs to be repeated with (x#) next to the part.

| /  slide up
| \  slide down
| h  hammer-on
| p  pull-off
| ~  vibrato
| +  harmonic
| x  Mute note
=======================================================================

1. WHAT EVER HAPPENED?

CHORUS (x2)

G|-----------------------------------------------------------------|
D|-----------------------------------------------------------------|
A|---------------------------------7-7-7-7-7-7-7-7-7-7-7-7-7-7-7-7-|
E|-7-7-7-7-7-7-7-7-7-7-7-7-7-7-7-7---------------------------------|

G|-----------------------------------------------------------------|
D|-----------------------------------------------------------------|
A|-4-4-4-4-4-4-4-4-4-4-4-4-4-4-4-4-7-7-7-7-7-7-7-7-7-7-7-7-7-7-7-7-|
E|-----------------------------------------------------------------|

INTERLUDE

G|---------------------------------|
D|---------------------------------|
A|---------------------------------|
E|-0-0-0-0-0-0-0-0-0-0-0-0-0-0-0-0-|

1ST VERSE

G|---------------------------------|
D|---------------------------------|
A|-----------------4-4-4-2-2-2-2-2-| x9
E|-4-4-4-2-2-2-2-2-----------------|

G|---------------------------------|
D|---------------------------------|
A|---------------------------------|
E|-4-4-4-2-2-2-2-2-2-2-2-2-2-2-2-2-|

BRIDGE

G|-----------------------------------------------------------------|
D|-----------------------------------------------------------------|
A|-2-2-2-----------2-2-2-----------2-2-2-----------2-2-2-------7-6-|
E|-------4-4-4-4-4-------4-4-4-4-4-------4-4-4-4-4-------4-4-4-----|

G|-----------------------------------------------------------------|
D|-------------6---------------6-----------------------------------|
A|-4-4-4-7-7-7---7-4-4-4-7-7-7---7-2-2-2-----------2-2-2-----------|
E|---------------------------------------4-4-4-4-4-------4-4-4-----|

2ND VERSE

G|---------------------------------|
D|---------------------------------|
A|-----------------4-4-4-2-2-2-2-2-| x3
E|-4-4-4-2-2-2-2-2-----------------|

G|---------------------------------|
D|---------------------------------|
A|---------------------------------|
E|-4-4-4-2-2-2-2-2-2-2-2-2-2-2-2-2-|

DRUM INTERLUDE (no bass)
Repeat CHORUS
Repeat INTERLUDE

2. REPTILIA

INTRO

G|-----------------------------------------------------------------|
D|-9-9-9-9-9-9-9-9-9-9-9-9-9-9-9-9-9-9-9-9-9-9-9-9-9-9-9-9-9-9-9-9-|
A|-----------------------------------------------------------------| x2
E|-----------------------------------------------------------------|

G|-----------------------------------------------------------------|
D|-----------------------------------------------------------------|
A|---------------------------------7-7-7-7-7-7-7-7-7-7-7-7-7-7-7-7-| x4
E|-7-7-7-7-7-7-7-7-7-7-7-7-7-7-7-7---------------------------------|

1ST VERSE (Drums and Guitar at first)

G|-----------------------------------------------------------------|
D|-----------------------------------------------------------------|
A|---------------------------------7-7-7-7-7-7-7-7-7-7-7-7-7-7-7-7-| x4
E|-7-7-7-7-7-7-7-7-7-7-7-7-7-7-7-7---------------------------------|

CHORUS (Guitar starts it)

G|-----------------------------------------------------------------|
D|-----------------------------------------------------------------|
A|-----4455-1010-101212-121010-101212-12/1717161614141212----------| x3
E|-77-7------------------------------------------------------------|

G|-----------------------------------------------------------------|
D|-----------------------------------------------------------------|
A|-----4455101010101212121210101010121212121717161614141212--------| x2
E|-7777------------------------------------------------------------|

INTERLUDE 1

G|-----------------------------------------------------------------|
D|-9-9-9-9-9-9-9-9-9-9-9-9-9-9-9-9---------------------------------|
A|---------------------------------7-7-7-7-7-7-7-7-7-7-7-7-7-7-7-7-| x3
E|-----------------------------------------------------------------|

G|-----------------------------------------------------------------|
D|-----------------------------------------------------------------|
A|---------------------------------7-7-7-7-7-7-7-7-7-7-7-7-7-7-7-7-|
E|-7-7-7-7-7-7-7-7-7-7-7-7-7-7-7-7---------------------------------|

2ND VERSE (Play right away)

G|-----------------------------------------------------------------|
D|-9-9-9-9-9-9-9-9-9-9-9-9-9-9-9-9---------------------------------|
A|---------------------------------7-7-7-7-7-7-7-7-7-7-7-7-7-7-7-7-| x2
E|-----------------------------------------------------------------|

G|-----------------------------------------------------------------|
D|-----------------------------------------------------------------|
A|---------------------------------7-7-7-7-7-7-7-7-7-7-7-7-7-7-7-7-| x4
E|-7-7-7-7-7-7-7-7-7-7-7-7-7-7-7-7---------------------------------|

Repeat CHORUS

OUTRO

G|-----------------------------------------------------------------|
D|-9-9-9-9-9-9-9-9-9-9-9-9-9-9-9-9-9-9-9-9-9-9-9-9-9-9-9-9-9-9-9-9-|
A|-----------------------------------------------------------------|
E|-----------------------------------------------------------------|

3. AUTOMATIC STOP

1ST VERSE

G|-----------------------------------------------------------------|
D|-----------------------------------------------------------------|
A|-9-9-9-9-9-9-9-9-6-6-6-6-6-6-6-6-----------------8-8-8-----------| x2
E|---------------------------------9-9-9-9-9-9-9-9-------9-9-9-6-6-|

G|-----------------------------------------------------------------|
D|-----------------------------------------------------------------|
A|-----------------------------------------------------------------|
E|-4-4-4-4-4-4-4-4-4-4-4-4-4-4-4-4-2-2-2-2-2-2-2-2-2-2-2-2-2-2-2-2-|

G|-----------------------------------------------------------------|
D|-----------------------------------------------------------------|
A|---------------------------------4-4-4-4-4-4-4-4-4-4-4-4-4-4-4-4-|
E|-4-4-4-4-4-4-4-4-7-7-7-7-7-7-7-7---------------------------------|

INTERLUDE

G|-----------------------------------------------------------------|
D|-----------------------------------------------------------------|
A|-9-9-9-9-9-9-9-9-6-6-6-6-6-6-6-6-----------------8-8-8-----------|
E|---------------------------------9-9-9-9-9-9-9-9-------9-9-9-6-6-|

G|-----------------------------------------------------------------|
D|-----------------------------------------------------------------|
A|-9-9-9-9-9-9-9-9-6-6-6-6-6-6-6-6---------------------------------|
E|---------------------------------9-9-9-9-9-9-9-9-9-9-9-9-9-9-9-9-|

CHORUS (x2)

G|-------------------------------------------------------------------|
D|-------------------------------------------------------------------|
A|-9-9-9-6-6-6-----------8-8-8-11-11-6-6-6-----------6-6-6-----------|
E|-------------6-6-9-9-9-------------------6-6-6-2-2-------6-6-6-2-2-|

G|-------------------------------------------------------------------|
D|-------------------------------------------------------------------|
A|---------------------------------2-2-2-2-2-2-2-2-2-2-2-2-2-2-2-2---|
E|-4-4-4-4-4-4-4-4-4-4-4-4-4-4-4-4-----------------------------------|

Repeat INTERLUDE

2ND VERSE

G|-----------------------------------------------------------------|
D|-----------------------------------------------------------------|
A|-9-9-9-9-9-9-9-9-6-6-6-6-6-6-6-6-----------------8-8-8-----------| x2
E|---------------------------------9-9-9-9-9-9-9-9-------9-9-9-6-6-|

G|-----------------------------------------------------------------|
D|-----------------------------------------------------------------|
A|-----------------------------------------------------------------|
E|-4-4-4-4-4-4-4-4-4-4-4-4-4-4-4-4-2-2-2-2-2-2-2-2-2-2-2-2-2-2-2-2-|

G|-----------------------------------------------------------------|
D|-----------------------------------------------------------------|
A|---------------------------------4-4-4-4-4-4-4-4-----------------|
E|-4-4-4-4-4-4-4-4-7-7-7-7-7-7-7-7-----------------7-7-7-7-7-7-7-7-|

Repeat CHORUS
4. 12:51

INTRO

G|---------------------------------|
D|---------------------------------|
A|-7-7-7-7-7-7-7-7-7-7-7-7-7-7-7-7-| x3
E|---------------------------------|

G|-----------------------------------------------------------------|
D|-----------------------------------------------------------------|
A|---------------------------------7-7-7-7-7-7-7-7-7-7-7-7-7-7-7-7-| x2
E|-8-8-8-8-8-8-8-8-8-8-8-8-8-8-8-8---------------------------------|

VERSE

G|-----------------------------------------------------------------|
D|-----------------------------------------------------------------|
A|-----------------0-0-0-0-0-0-0-0-----------------2-2-2-2-2-2-2-2-| x2
E|-0-0-0-0-0-0-0-0-----------------2-2-2-2-2-2-2-2-----------------|

INTERLUDE

G|---------------------------------|
D|---------------------------------|
A|-7-7-7-7-7-7-7-7-----------------| x4
E|-----------------9-9-9-9-7-7-7-7-|

Repeat VERSE
Repeat INTERLUDE

CHORUS

G|-----------------------------------------------------------------|
D|-----------------------------------------------------------------|
A|---------------------------------7-7-7-7-7-7-7-7-7-7-7-7-7-7-7-7-| x4
E|-8-8-8-8-8-8-8-8-8-8-8-8-8-8-8-8---------------------------------|

Repeat VERSE (x4)
Repeat INTERLUDE

OUTRO

G|---------------------------------|
D|---------------------------------|
A|-7-7-7-7-7-7-7-7-7-7-7-7-7-------|
E|---------------------------------|

5. YOU TALK WAY TOO MUCH

INTRO (Guitar Only)

1ST VERSE

G|-------------------------------------------------------------------------|
D|---7---7---7---7---7---7---7---7---14---14---14---14---14---14---14---14-|
A|-------------------------------------------------------------------------| x3
E|-5---5---5---5---5---5---5---5---12---12---12---12---12---12---12---12---|

G|-------------------------------------------------------------------------|
D|---7---7---7---7---7---7---7---7---14---14---14---14---14---14---14------|
A|-------------------------------------------------------------------------|
E|-5---5---5---5---5---5---5---5---12---12---12---12---12---12---12---12\--|

CHORUS

G|-----------------------------------------------------------------|
D|-----------------------------------------------------------------|
A|-----------------------------------------------------------------|
E|-0-0-0-0-0-0-0-0-7-7-7-7-7-7-7-7-0-0-0-0-0-0-0-0-5-5-5-5-5-5-5-5-|

G|-----------------------------------------------------------------|
D|-----------------------------------------------------------------|
A|-----------------------------------------------------------------|
E|-2-2-2-2-2-2-2-2-7-7-7-7-7-7-7-7-5-5-5-5-5-5-5-5-7-7-7-7-7-7-7-7-|

INTERLUDE (x2)

G|-------------------------------------------------|
D|-------------------------------------------------|
A|-12-12-12-12-12-12-12-12-12-12-12-12-12-12-12-12-|
E|-------------------------------------------------|

G|---------------------------------|
D|---------------------------------|
A|-7-7-7-7-7-7-7-7-7-7-7-7-7-7-7-7-|
E|---------------------------------|

Repeat VERSE

2ND CHORUS

G|-----------------------------------------------------------------|
D|-----------------------------------------------------------------|
A|-----------------------------------------------------------------|
E|-0-0-0-0-0-0-0-0-7-7-7-7-7-7-7-7-0-0-0-0-0-0-0-0-5-5-5-5-5-5-5-5-|

G|---------------------------------------------------------------------------------|
D|---------------------------------------------------------------------------------|
A|---------------------------------------------------------------------------------|
E|-2-2-2-2-2-2-2-2-7-7-7-7-7-7-7-7-5-5-5-5-5-5-5-5-7-7-7-7-7-7-7-7-7-7-7-7-7-7-7-7-|

G|-----------------------------------------------------------------|
D|-----------------------------------------------------------------|
A|-----------------------------------------------------------------|
E|-0-0-0-0-0-0-0-0-7-7-7-7-7-7-7-7-0-0-0-0-0-0-0-0-5-5-5-5-5-5-5-5-|

G|-----------------------------------------------------------------|
D|-----------------------------------------------------------------|
A|-----------------------------------------------------------------|
E|-2-2-2-2-2-2-2-2-7-7-7-7-7-7-7-7-5-5-5-5-5-5-5-5-7-7-7-7-7-7-9\--|

OUTRO

G|-----------------------------------------------------------------------------|
D|-----------------------------------------------------------------------------|
A|-----------------------------------------------------------------------------|
E|-0-0-0-0-0-0-0-0-5-5-5-5-5-5-5-5-0-0-0-0-0-0-0-0-5-5-5-5-5-5-5-5-------------|

G|-------------------------------------------------|
D|-14-14-14-12-12-12-------------------------------|
A|-------------------14-14-12-12-12-10-10-10-------|
E|-------------------------------------------12-12-|

G|------------------------------------------------------|
D|-14-14-14-12-12-12------------------------------------|
A|-------------------14-14-12-12-12-10-10-10------------|
E|-------------------------------------------12-12-0~~~-|

6. BETWEEN LOVE & HATE

INTRO (Drums for 2 bars)

G|---------------------------------------|
D|---------------------------------------|
A|----------4~~~------5~~~~~~~-4~~~------|
E|-5~~~~~~~------7~~~---------------7~~~-|

VERSE

G|---------------------------------------------------------------|
D|---------------------------------------------------------------|
A|---------------------------------44-44-44-44-4-----------------|
E|-55-55-55-55-5---55-55-55-55-5-------------------77-77-77-77-7-|

G|---------------------------------------------------------------|
D|---------------------------------------------------------------|
A|-55-55-55-55-5---55-55-55-55-5---44-44-44-44-4-----------------|
E|-------------------------------------------------77-77-77-77-7-|

CHORUS (x2)

G|-------------------------------------|
D|-------------------------------------|
A|----------5-5-5-5-----------5-5-5-5--|
E|-5-5-5-50--------0-5-5-5-50--------0-|

POST-CHORUS

G|-------------------------------------------------------------------------|
D|-------------------------------------------------------------------------|
A|----------------------------------------------------------------77777777-|
E|-55555555-00000000-77777777-00000000-55555555-00000000-77777777----------|

BRIDGE (Guitar Solo)

G|-----------------------------------------------------------------------------------|
D|-----------------------------------------------------------------------------------|
A|-----------------------------------------------55555555-55555555-55555555-55555555-|
E|-55555555-55555555-55555555-55555555-55555555--------------------------------------|

Repeat INTRO
Repeat VERSE
Repeat CHORUS
Repeat POST-CHORUS (Hold the A7s a little longer)
End on A5

7. MEET ME IN THE BATHROOM

INTRO

G|---------------------------------|
D|-52-5-2--52-5-2------------------|
A|---5---5---5---5\30-3-0--30-3-0--|
E|-------------------3---3---3---3-|

VERSE

G|-------------------------------------|
D|----------55555555-22222222----------|
A|----------------------------55555555-| x2
E|-33333333----------------------------|

G|-------------------------------------------------------|
D|-------------------------------------------------------|
A|-------------------------------------------------------|
E|-55555555-55555555-55555555-55555555-55555555-55555035-|

G|-------------------------------------|
D|-------------------------------------|
A|-55555555-55555555-55555555-55555555-|
E|-------------------------------------|

1ST CHORUS

G|-------------------------------------------------------|
D|-------------------------------------------------------|
A|-33333333-33333333-00000000-00000000-55555555-55555555-|
E|-------------------------------------------------------|

1ST GUITAR INTERLUDE (No Bass)

Repeat INTRO (x4)
Repeat VERSE

2ND CHORUS

G|-------------------------------------------------------------------------|
D|-------------------------------------------------------------------------|
A|-33333333-33333333-------------------55555555-55555555-55555555-55555555-|
E|-------------------55555555-55555555-------------------------------------|

2ND GUITAR INTERLUDE (Bass Comes in later with INTRO x2)

OUTRO

G|-----------------------|
D|-------5~~~------------|
A|-10~~~------7-\/-10~~~-|
E|-----------------------|


8. UNDER CONTROL

VERSE

G|-----------------------------------------------------------------|
D|-----------------------------------------------------------------|
A|-4-4-4-6-6-6-6-6-6-6-6-4-4-4-4-4-8-8-8-9-9-9-9-9-8-9-8-6-6-6-6-6-| x2
E|-----------------------------------------------------------------|

G|-----------------------------------------------------------------|
D|-----------------------------------------------------------------|
A|-4-4-4-6-6-6-6-6-6-6-6-4-4-4-4-4-8-8-8-6-6-6-6-6-6-6-6-4-4-4-4-4-|
E|-----------------------------------------------------------------|

CHORUS

G|---------------------------------|
D|---------------------------------|
A|-----------------6-6-6-6-6-6-6-6-| x3
E|-4-4-4-4-4-4-4-4-----------------|

G|---------------------------------|
D|---------------------------------|
A|---------------------------------|
E|-4-4-4-4-4-4-4-4/16~~~-----------|

Repeat VERSE

BRIDGE
                                          |--3--|
G|---------------------------------------------------------------|
D|---------------------------------------------------------------|
A|-----------------4-4-4-4-4-4-4-4-----------1-2-4-4-4-4-4-4-4-4-| x2
E|-2-2-2-2-2-2-2-2-----------------2-2-2-2-4---------------------|

Repeat CHORUS
Repeat VERSE

OUTRO

G|---------------------|
D|---------------------|
A|-8---6~---9-8-6-4~~~-|
E|---------------------|


9. THE WAY IT IS

INTRO (x2)

G|----------------------------------------------------------------------------|
D|----------------------------------------------------------------------------|
A|-14-14-12-14-14-12-14-14-12-14-14-12-14-14-12-14-14-12-14-14-12-14-14-12-14-|
E|----------------------------------------------------------------------------|

1ST VERSE

G|-------------------------------------|
D|-------------------------------------|
A|-77777777-99999999-77777777-99999999-|
E|-------------------------------------|

INTERLUDE

G|----------------------------------------------------------------------------|
D|----------------------------------------------------------------------------|
A|-14-14-12-14-14-12-14-14-12-14-14-12-14-14-12-14-14-12-14-14-12-14-14-12-14-|
E|----------------------------------------------------------------------------|

2ND VERSE

G|-------------------------------------|
D|-------------------------------------|
A|-77777777-99999999-77777777-99999999-|
E|-------------------------------------|

G|----------------------------------------------|
D|----------------------------------------------|
A|-77777777-99999999-77777777-99999999-99999999-|
E|----------------------------------------------|

CHORUS

G|---------------------|
D|---------------------|
A|-2222-4444-----------| x3
E|-----------2222-0000-|

3RD VERSE

G|-------------------|
D|-------------------|
A|-----7777-9999999\-|
E|-0000--------------|

BRIDGE (Guitars alone for 8 bars then…)

G|----------------------------------------------------------------------------|
D|----------------------------------------------------------------------------|
A|-14-14-12-14-14-12-14-14-12-14-14-12-14-14-12-14-14-12-14-14-12-14-14-12-14-|
E|----------------------------------------------------------------------------|

G|----------------------------------------------------------------------------|
D|-16-16-14-16-16-14-16-16-14-16-16-14-16-16-14-16-16-14-16-16-14-16-16-14-16-|
A|----------------------------------------------------------------------------|
E|----------------------------------------------------------------------------|

G|----------------------------------------------------------------------------|
D|-16-16---16-16--------------------------------------------------------------|
A|----------------------------------------------------------------------------|
E|----------------------------------------------------------------------------|

Repeat 2ND VERSE

Repeat CHORUS (x7)

OUTRO

G|--------------------------------------------|
D|--------------------------------------------|
A|-2222-4444----------------------------------|
E|-----------22222222-00000000-00000000-00000-|

10. THE END HAS NO END

INTRO

G|---------------------------------|
D|-7-7-7-7---------6-6-6-6---------|
A|---------7-7-7-7---------6-6-6-6-|
E|---------------------------------|

VERSE (Guitars alone for a while)

G|-------------------------------------------------------|
D|-------------------------------------------------------|
A|-44444444-44444444-44444444-44444444-------------------|
E|-------------------------------------44444444-44444444-|

PRE-CHORUS

G|-------------------------------------|
D|-------------------33333333----------|
A|-44444444-11111111-------------------| x2
E|----------------------------44444444-|

G|-------------------------------------|
D|-------------------------------------|
A|-44444444----------------------------|
E|----------66666666\11111111/44444444-|

G|-------------------------------------------------------|
D|-------------------33333333-33333333-------------------|
A|-44444444-11111111-------------------------------------|
E|-------------------------------------44444444-44444444-|

CHORUS

G|--------------------------------------|
D|--------------------------------------|
A|----------44444444-----------66666666-|
E|-22222222-----------44444444----------|

G|-----------------------------------------------|
D|-----------------------------------------------|
A|----------44444444-----------66666666-66666666-|
E|-22222222-----------44444444-------------------|

INTERLUDE

G|-------------------------------------------------------------------------|
D|-------------------------------------------------------------------------|
A|-44444444-44444444-44444444-44444444-------------------------------------|
E|-------------------------------------44444444-44444444-44444444-44444444-|

2ND VERSE

G|-------------------------------------------------------------------------|
D|-------------------------------------------------------------------------|
A|-44444444-44444444-44444444-44444444-------------------------------------|
E|-------------------------------------44444444-44444444-44444444-44444444-|

Repeat PRE-CHORUS

2ND CHORUS

G|--------------------------------------|
D|--------------------------------------|
A|----------44444444-----------66666666-| x3
E|-22222222-----------44444444----------|

G|--------------------------------------------------------|
D|--------------------------------------------------------|
A|----------44444444-----------66666666-66666666-66666666-|
E|-22222222-----------44444444----------------------------|

Repeat INTRO


11. I CAN’T WAIT

~Listen to CD to time the notes.
 It’s easy and is repeated basically the whole way through.

INTRO

G|-------------|
D|-------------|
A|-11~~~-------|
E|-------------|

G|--------------------------------------|
D|-9-9-9-99-9-9-9-999-------------------|
A|-------------------7-7-7-77-7-7-7-777-| x2
E|--------------------------------------|

VERSE (x2)

G|---------------------------------------|
D|-9-9-9-99-9-9-9-999-9-9-9-99-9-9-9-999-|
A|---------------------------------------|
E|---------------------------------------|

G|-9-9-9-99-9-9-9-999--------------------------------|
D|--------------------11-11-11-1111-11-11-11-1111111-|
A|---------------------------------------------------|
E|---------------------------------------------------|

CHORUS

G|--------------------------------------|
D|-9-9-9-99-9-9-9-999-------------------|
A|-------------------7-7-7-77-7-7-7-777-| x2
E|--------------------------------------|

G|-------------------------------------------------------------|
D|-------------------------------11-11-11-1111-11-11-11-111111-|
A|-11-11-11-1111-11-11-11-111111-------------------------------|
E|-------------------------------------------------------------|

G|---------------------------------------|
D|---------------------------------------|
A|-9-9-9-99-9-9-9-999-9-9-9-99-9-9-9-999-|
E|---------------------------------------|

Repeat VERSE
Repeat CHORUS

BRIDGE (Guitar Solo)

G|---------------------------------------------------|
D|-------------------------------9~~~------9~~~------|
A|-11(x32)--------11(x32)-------------7~~~------7~~~-|
E|---------9(x32)---------9(x32)---------------------|

FINAL CHORUS

G|--------------------------------------|
D|-9-9-9-99-9-9-9-999-------------------|
A|-------------------7-7-7-77-7-7-7-777-| x4
E|--------------------------------------|

OUTRO

G|---------------------|
D|---------------------|
A|-1111-1111-1111-1111-|
E|---------------------|
comments
print report bad tab
I want to post or [tab]
guest
You may want to rate the tab now too:
select rating
Please do not post tabs as comments. Select "correction" instead!