Oops, an error
Loading. Please wait.
We have an official Soma tab made by UG professional guitarists. Check out the tab »
×
4,885 views 60 this week
1 commentread comment
1 2 3 4 5
x 15
add to favorites
×
Save as Personal and add changes to this tab that will be seen only by you. Learn more ›
×
You can save this tab as Personal to edit and correct it or add notes. All changes will be seen only by you. Learn more »
launch autoscroll
font size
0
reset
transpose
0
reset
display chords
guitar tuner
backing track
0:00
0:00
edit
Autoscroll
slow
fast
+/-
esc
set tempo
stop
Strumming
There is no strumming pattern for this song yet. and get +5 IQ
Intro riff/Pre verse              Verse

e----|--------10-----------10----|----------10---------10------------8--------8------|
b-8--|----8-8-----------8-8------|-------8-8--------8-8----------6-6-------6-6-------|
g-7--|9-9-----------9-9----------|----9-9--------9-9---------7-7--------7-7----------|
d-5--|---------------------------|---------------------------------------------------|
a----|---------------------------|---------------------------------------------------|
E----|---------------------------|---------------------------------------------------|

G                       F
Soma is what they would take when
                  G
hard times opened their eyes
               F
Saw pain in a new way
                  G
High stakes for a few names
                F
Racing against sunbeams
               G
Losing against their dreams
 F
In your eyes,
  G
I am
          Dm
Stop, and go

In your eyes,
  G
I am
       Dm
Stop, and go

In your eyes
    G
Lets go

Intro riff

G                      F                            G
When I saw her for the first time lips moved as her eyes closed
                       F
Heard something in his voice
          G                     F
"And i'll be there," he says and he walks out
               G                     F
Somehow he was trying too hard to be like them
      G
And I am
        Dm
Stop, and go
                G
In your eyes, and I am
               Dm
Stop and darling let me go
                       G
Try it once and they liked it, and try to hide it
Says I've been doing this twenty-five years
    Dm
Well I'm not listening no more
        G
And these friends they keep asking for more
Dm
Oh yeah
G-G-G
Oh but thats it

            
            
Suggest correction
Creating personal tab
Creating personal tab
You can edit any tab online and save it as your Personal.

You can edit, replace or remove any tab part or add personal notes – all changes will be seen only by you.

Personal tabs can be accessed anytime from any device, even offline.
Learn more »
comments
print report bad tab
1 comment total.
0 reply
xAngelsOfHellx 2,303 Dec 15, 2015 06:36 AM

Just one "stroke" on the high E string (lol)

e|--------10------------10---|
B|----8-8-----------8-8------|
G|9-9-----------9-9----------|
D|---------------------------|
A|---------------------------|
E|---------------------------|

guest
You may want to rate the tab now too:
select rating
Wanna post a correction for this tab? Suggest correction