Oops, an error
Loading. Please wait.
60,243 views 114 this week
5 commentsread comments
1 2 3 4 5
x 20
add to favorites
×
Save as Personal and add changes to this tab that will be seen only by you. Learn more ›
×
You can save this tab as Personal to edit and correct it or add notes. All changes will be seen only by you. Learn more »
launch autoscroll
font size
0
reset
how to read this tab
guitar tuner
backing track
0:00
0:00
edit
Autoscroll
slow
fast
+/-
esc
set tempo
stop
Author
-----------------------------------------------------------------------
SOMA - The Strokes
-----------------------------------------------------------------------
Tabbed by: gtarnoob (mike)
Email: thecheat07@hotmail.com 
 
Tuning: normal

Guitar 1:
e|---3------------3---------|----------------10---------------------10|
B|---3------------3---------|-5—5----8-8-------------5-5----8-8-------|
G|---4------------4---------|-----------------------------------------|
D|---5------------5---------|-----------------------------------------|
A|---5------------5---------|-----------------------------------------|
E|---3------------3---------|-----------------------------------------|
  Let chords ring

e|---------------10----------------10-|---------------8-------------8-|
B|-5-5----8-8--------5-5----8-8-------|-3-3----6-6-------3-3---6-6----|
G|------------------------------------|-------------------------------|
D|------------------------------------|-------------------------------|
A|------------------------------------|-------------------------------|
E|------------------------------------|-------------------------------|

e|---------------10----------------10-|---------------8-------------8-|
B|-5-5----8-8--------5-5----8-8-------|-3-3----6-6-------3-3---6-6----|
G|------------------------------------|-------------------------------|
D|------------------------------------|-------------------------------|
A|------------------------------------|-------------------------------|
E|------------------------------------|-------------------------------|

e|---------------10----------------10-|---------------8-------------8-|
B|-5-5----8-8--------5-5----8-8-------|-3-3----6-6-------3-3---6-6----|
G|------------------------------------|-------------------------------|
D|------------------------------------|-------------------------------|
A|------------------------------------|-------------------------------|
E|------------------------------------|-------------------------------|

e|---------------10----------------10-|---------------8-------------8/|
B|-5-5----8-8--------5-5----8-8-------|-3-3----6-6-------3-3---6-6----|
G|------------------------------------|-------------------------------|
D|------------------------------------|-------------------------------|
A|------------------------------------|-------------------------------|
E|------------------------------------|-------------------------------|

e|-10--10--10--10--10--10--9-9-9-9--|-10--10--10--10--10--10--8-8-8-8-|
B|-x---x---x---x---x---x---x-x-x-x--|-x---x---x---x---x---x---x-x-x-x-|
G|o7---7---7---7---7---7---6-6-6-6-o|o7---7---7---7---7---7---5-5-5-5o|
D|o--------------------------------o|o-------------------------------o|
A|----------------------------------|---------------------------------|
E|----------------------------------|---------------------------------|
----------Repeat 2x----------

e|--3-----3-----3-----3---|----------------10----------------10-------|
B|--3-----3-----3-----3---|--5-5----8-8--------5-5----8-8-------------|
G|--4-----4-----4-----4---|o-----------------------------------------o|
D|--5-----5-----5-----5---|o-----------------------------------------o|
A|--5-----5-----5-----5---|-------------------------------------------|
E|--3-----3-----3-----3---|-------------------------------------------|
  Let chords ring

e|---------------10----------------10-|---------------8-------------8-|
B|-5-5----8-8--------5-5----8-8-------|-3-3----6-6-------3-3---6-6----|
G|------------------------------------|-------------------------------|
D|------------------------------------|-------------------------------|
A|------------------------------------|-------------------------------|
E|------------------------------------|-------------------------------|

e|---------------10----------------10-|---------------8---------------|
B|-5-5----8-8--------5-5----8-8-------|-3-3----6-6--------------------|
G|------------------------------------|------------------[rests]------|
D|------------------------------------|-------------------------------|
A|------------------------------------|-------------------------------|
E|------------------------------------|-------------------------------|

e|---------------10----------------10-|---------------8-------------8-|
B|-5-5----8-8--------5-5----8-8-------|-3-3----6-6-------3-3---6-6----|
G|------------------------------------|-------------------------------|
D|------------------------------------|-------------------------------|
A|------------------------------------|-------------------------------|
E|------------------------------------|-------------------------------|

e|---------------10----------------10-|---------------8-------------8-|
B|-5-5----8-8--------5-5----8-8-------|-3-3----6-6-------3-3---6-6----|
G|------------------------------------|-------------------------------|
D|------------------------------------|-------------------------------|
A|------------------------------------|-------------------------------|
E|------------------------------------|-------------------------------|

e|-10—10—10—10—10—10—9-9-9-9--|-10—10—10—10—10—10—8-8-8-8-|
B|-x---x---x---x---x---x---x-x-x-x--|-x---x---x---x---x---x---x-x-x-x-|
G|o7---7---7---7---7---7---6-6-6-6-o|o7---7---7---7---7---7---5-5-5-5o|
D|o--------------------------------o|o-------------------------------o|
A|----------------------------------|---------------------------------|
E|----------------------------------|---------------------------------|
----------Repeat 4x----------

e|-3---------3---------3-----------|
B|-3---------3---------3-----------|
G|-4---------4---------4-----------|
D|-5---------5---------5-----------|end 
A|-5---------5---------5-----------|
E|-3---------3---------3-----------|
  Let chords ring except last one

Guitar 2:
e|-3--------------------3--|----3---------------------3---------------|
B|-3--------------------3--|----3---------------------3---------------|
G|-4--------------------4--|----4---------------------4---------------|
D|-5--------------------5--|----5---------------------5---------------|
A|-5--------------------5--|----5---------------------5---------------|
E|-3--------------------3--|----3---------------------3---------------|
  Let Chords ring except last one

e|-3-----3---------3-----3------3-3-|-1-----1------1-----1----1----1-1|
B|-3-----3---------3-----3------3-3-|-1-----1------1-----1----1----1-1|
G|-4-----4---------4-----4------4-4-|-2-----2------2-----2----2----2-2|
D|-5-----5---------5-----5------5-5-|-3-----3------3-----3----3----3-3|
A|-5-----5---------5-----5------5-5-|-3-----3------3-----3----3----3-3|
E|-3-----3---------3-----3------3-3-|-1-----1------1-----1----1----1-1|

e|-3-----3---------3-----3------3-3-|-1-----1------1-----1----1----1-1|
B|-3-----3---------3-----3------3-3-|-1-----1------1-----1----1----1-1|
G|-4-----4---------4-----4------4-4-|-2-----2------2-----2----2----2-2|
D|-5-----5---------5-----5------5-5-|-3-----3------3-----3----3----3-3|
A|-5-----5---------5-----5------5-5-|-3-----3------3-----3----3----3-3|
E|-3-----3---------3-----3------3-3-|-1-----1------1-----1----1----1-1|

e|-----7-----7---7-----7-----7---7-|-----5-----5---5-----5-----5---5--|
B|---8-----8---------8-----8-------|---6-----6---------6-----6--------|
G|-7-----7-----7---7-----7-----7---|-5-----5-----5---5-----5-----5----|
D|---------------------------------|----------------------------------|
A|---------------------------------|----------------------------------|
E|---------------------------------|----------------------------------|
  Let notes ring  (not quite sure that this is right)

e|-----7-----7---7-----7-----7---7-|-----5-----5---5-----5-----5---5--|
B|---8-----8---------8-----8-------|---6-----6---------6-----6--------|
G|-7-----7-----7---7-----7-----7---|-5-----5-----5---5-----5-----5----|
D|---------------------------------|----------------------------------|
A|---------------------------------|----------------------------------|
E|---------------------------------|----------------------------------|

e|---------------------------------|----------------------------------|
B|-----12-12-12-12-12-12-12-12-----|-----10-10-10-10-10-10-10-10------|
G|o----12-12-12-12-12-12-12-12----o|o----10-10-10-10-10-10-10-10-----o|
D|o----12-12-12-12-12-12-12-12----o|o----10-10-10-10-10-10-10-10-----o|
A|-----10-10-10-10-10-10-10-10-----|-----8—-8—-8—-8—-8—-8—-8-—8-------|
E|---------------------------------|----------------------------------|
----------Repeat 2x----------

e|-3----3----3----3----| 3----3----3----3-----------------------------|
B|-3----3----3----3----|-3----3----3----3-----------------------------|
G|-4----4----4----4----|-4----4----4----4-----------------------------|
D|-5----5----5----5----|-5----5----5----5-----------------------------|
A|-5----5----5----5----|-5----5----5----5-----------------------------|
E|-3----3----3----3----|-3----3----3----3-----------------------------|
 Let chords ring except last one

e|-3-----3---------3-----3------3-3-|-1-----1------1-----1----1----1-1|
B|-3-----3---------3-----3------3-3-|-1-----1------1-----1----1----1-1|
G|-4-----4---------4-----4------4-4-|-2-----2------2-----2----2----2-2|
D|-5-----5---------5-----5------5-5-|-3-----3------3-----3----3----3-3|
A|-5-----5---------5-----5------5-5-|-3-----3------3-----3----3----3-3|
E|-3-----3---------3-----3------3-3-|-1-----1------1-----1----1----1-1|

e|-3-----3---------3-----3------3-3-|-1-----1------1-----1----1----1-1|
B|-3-----3---------3-----3------3-3-|-1-----1------1-----1----1----1-1|
G|-4-----4---------4-----4------4-4-|-2-----2------2-----2----2----2-2|
D|-5-----5---------5-----5------5-5-|-3-----3------3-----3----3----3-3|
A|-5-----5---------5-----5------5-5-|-3-----3------3-----3----3----3-3|
E|-3-----3---------3-----3------3-3-|-1-----1------1-----1----1----1-1|

e|-----7-----7---7-----7-----7---7-|-----5-----5---5-----5-----5---5--|
B|---8-----8---------8-----8-------|---6-----6---------6-----6--------|
G|-7-----7-----7---7-----7-----7---|-5-----5-----5---5-----5-----5----|
D|---------------------------------|----------------------------------|
A|---------------------------------|----------------------------------|
E|---------------------------------|----------------------------------|
  Let notes ring

e|-----7-----7---7-----7-----7---7-|-----5-----5---5-----5-----5---5--|
B|---8-----8---------8-----8-------|---6-----6---------6-----6--------|
G|-7-----7-----7---7-----7-----7---|-5-----5-----5---5-----5-----5----|
D|---------------------------------|----------------------------------|
A|---------------------------------|----------------------------------|
E|---------------------------------|----------------------------------|
  
e|---------------------------------|----------------------------------|
B|-----12-12-12-12-12-12-12-12-----|-----10-10-10-10-10-10-10-10------|
G|o----12-12-12-12-12-12-12-12----o|o----10-10-10-10-10-10-10-10-----o|
D|o----12-12-12-12-12-12-12-12----o|o----10-10-10-10-10-10-10-10-----o|
A|-----10-10-10-10-10-10-10-10-----|-----8—-8—-8—-8—-8—-8—-8-—8-------|
E|---------------------------------|----------------------------------|
----------Repeat 4x----------

e|-3---------3---------3-----------|
B|-3---------3---------3-----------|
G|-4---------4---------4-----------|
D|-5---------5---------5-----------|end 
A|-5---------5---------5-----------|
E|-3---------3---------3-----------|
  Let chords ring except last one


************************************

| x  Dead note
| /  Slide up

************************************

            
            
Suggest correction
Creating personal tab
Creating personal tab
You can edit any tab online and save it as your Personal.

You can edit, replace or remove any tab part or add personal notes – all changes will be seen only by you.

Personal tabs can be accessed anytime from any device, even offline.
Learn more »
comments
print report bad tab
5 comments total. Showing first comments.
0 reply
nickster5689 17 Feb 11, 2008 09:06 PM

great tab gtarnoob but for guitar 2(nick) i think it sounds better if you replace the 8 for a 12 like this:
e|---------------------------|----------------------------|
B|-12-12-12-12-12-12-12-12---|--10-10-10-10-10-10-10-10---|
G|-12-12-12-12-12-12-12-12---|--10-10-10-10-10-10-10-10---|
D|-12-12-12-12-12-12-12-12---|--10-10-10-10-10-10-10-10---|
A|-10-10-10-10-10-10-10-10---|--12-12-12-12-12-12-12—12---|
E|---------------------------|----------------------------|

-1 reply
gtarnoob 80 Feb 21, 2008 05:34 AM

I've actually made corrections since it was first posted, but I haven't posted them online yet.
For guitar 2, this part:
e|---------------------------------|----------------------------------|
B|-----12-12-12-12-12-12-12-12-----|-----10-10-10-10-10-10-10-10------|
G|o----12-12-12-12-12-12-12-12----o|o----10-10-10-10-10-10-10-10-----o|
D|o----12-12-12-12-12-12-12-12----o|o----10-10-10-10-10-10-10-10-----o|
A|-----10-10-10-10-10-10-10-10-----|-----8--8--8--8--8--8--8--8-------|
E|---------------------------------|----------------------------------|

I changed that F chord to a D minor chord

and for
e|-3-----3---------3-----3------3-3-|-1-----1------1-----1----1----1-1|
B|-3-----3---------3-----3------3-3-|-1-----1------1-----1----1----1-1|
G|-4-----4---------4-----4------4-4-|-2-----2------2-----2----2----2-2|
D|-5-----5---------5-----5------5-5-|-3-----3------3-----3----3----3-3|
A|-5-----5---------5-----5------5-5-|-3-----3------3-----3----3----3-3|
E|-3-----3---------3-----3------3-3-|-1-----1------1-----1----1----1-1|

it should be

e|-3-----3---------3-----3------3-3-|-1-----1-----------1----1----1-1|
B|-5-----3---------5-----3------5-3-|-3-----1-----------3----1----3-1|
G|-4-----4---------4-----4------4-4-|-2-----2-----------2----2----2-2|
D|-5-----5---------5-----5------5-5-|-3-----3-----------3----3----3-3|
A|-5-----5---------5-----5------5-5-|-3-----3-----------3----3----3-3|
E|-3-----3---------3-----3------3-3-|-1-----1-----------1----1----1-1|

And this part:
e|-----7-----7---7-----7-----7---7-|-----5-----5---5-----5-----5---5--|
B|---8-----8---------8-----8-------|---6-----6---------6-----6--------|
G|-7-----7-----7---7-----7-----7---|-5-----5-----5---5-----5-----5----|
D|---------------------------------|----------------------------------|
A|---------------------------------|----------------------------------|
E|---------------------------------|----------------------------------|

should be:
e|-----7-----7---7-----7-----7---7-|-----5-----5---5-----5-----5---5--|
B|---8-----8---------8-----8-------|---6-----6---------6-----6--------|
G|-9-----7-----7---9-----7-----7---|-7-----5-----5---7-----5-----5----|
D|---------------------------------|----------------------------------|
A|---------------------------------|----------------------------------|
E|---------------------------------|----------------------------------|

0 reply
gtarnoob 80 Feb 21, 2008 05:34 AM

I've actually made corrections since it was first posted, but I haven't posted them online yet.
For guitar 2, this part:
e|---------------------------------|----------------------------------|
B|-----12-12-12-12-12-12-12-12-----|-----10-10-10-10-10-10-10-10------|
G|o----12-12-12-12-12-12-12-12----o|o----10-10-10-10-10-10-10-10-----o|
D|o----12-12-12-12-12-12-12-12----o|o----10-10-10-10-10-10-10-10-----o|
A|-----10-10-10-10-10-10-10-10-----|-----8--8--8--8--8--8--8--8-------|
E|---------------------------------|----------------------------------|

I changed that F chord to a D minor chord

and for
e|-3-----3---------3-----3------3-3-|-1-----1------1-----1----1----1-1|
B|-3-----3---------3-----3------3-3-|-1-----1------1-----1----1----1-1|
G|-4-----4---------4-----4------4-4-|-2-----2------2-----2----2----2-2|
D|-5-----5---------5-----5------5-5-|-3-----3------3-----3----3----3-3|
A|-5-----5---------5-----5------5-5-|-3-----3------3-----3----3----3-3|
E|-3-----3---------3-----3------3-3-|-1-----1------1-----1----1----1-1|

it should be

e|-3-----3---------3-----3------3-3-|-1-----1-----------1----1----1-1|
B|-5-----3---------5-----3------5-3-|-3-----1-----------3----1----3-1|
G|-4-----4---------4-----4------4-4-|-2-----2-----------2----2----2-2|
D|-5-----5---------5-----5------5-5-|-3-----3-----------3----3----3-3|
A|-5-----5---------5-----5------5-5-|-3-----3-----------3----3----3-3|
E|-3-----3---------3-----3------3-3-|-1-----1-----------1----1----1-1|

And this part:
e|-----7-----7---7-----7-----7---7-|-----5-----5---5-----5-----5---5--|
B|---8-----8---------8-----8-------|---6-----6---------6-----6--------|
G|-7-----7-----7---7-----7-----7---|-5-----5-----5---5-----5-----5----|
D|---------------------------------|----------------------------------|
A|---------------------------------|----------------------------------|
E|---------------------------------|----------------------------------|

should be:
e|-----7-----7---7-----7-----7---7-|-----5-----5---5-----5-----5---5--|
B|---8-----8---------8-----8-------|---6-----6---------6-----6--------|
G|-9-----7-----7---9-----7-----7---|-7-----5-----5---7-----5-----5----|
D|---------------------------------|----------------------------------|
A|---------------------------------|----------------------------------|
E|---------------------------------|----------------------------------|

(sorry, posted in the comments section first)

guest
You may want to rate the tab now too:
select rating
Wanna post a correction for this tab? Suggest correction