Oops, an error
Loading. Please wait.
We have an official Someday tab made by UG professional guitarists. Check out the tab »
×
7,211 views 1 this week
2 commentsread comments
1 2 3 4 5
x 6
add to favorites
×
Save as Personal and add changes to this tab that will be seen only by you. Learn more ›
×
You can save this tab as Personal to edit and correct it or add notes. All changes will be seen only by you. Learn more »
launch autoscroll
font size
0
reset
guitar tuner
backing track
0:00
0:00
edit
Autoscroll
slow
fast
+/-
esc
set tempo
stop
The Strokes - Someday

I saw there were a few tabs up here, but none of them seemed to be spot on.
I'm gonna' try my version here, and after listening to it a couple of times (the bass
is really hard to hear) I hope it's quite close.


Intro/verse
G|--------------------------------|
D|--------------------------------|
A|---------------5-5--------------|
E|-5-5----7-7-----------5-5-------|

On the last verse right before the chorus, Nikolai throws a simple fill into the pot:

Fill
G|-------------|
D|-------------|
A|-------------|
E|-0-2---------|

And then goes into the chorus:
                                                         1       2
G|-------------------------------------------------------|-------|------|
D|---------2---------4--2--------------------------------|-------|------|
A|-----2H4----4--------------5-5-5-5-5-5-5-5-------------|-----x3|------|
E|--5------------2---------------------------5-5-5-5-5-5-|-0-2---|-5-5--|

Bridge section:

G|------------|
D|------------|
A|------------|
E|-0-x32------|

Then I won't bother putting the breakdown part, because it's exactly the same as the
except the lead guitar not playing the first bars.

Outro:
G|------------|
D|------------|
A|--------0---|
E|-0-x32------|

Ok, as this might seem a bit confusing i'll put the different parts in structure.

Intro/verse x6
Fill
Chorus x4
Bridge section
Breakdown (same as intro)/verse x4
Fill
Chorus x4
Outro


That would be it. Please rate! It should be 100% accurate, though if you have any suggestions
just pm giiii and I'll get back to you. :)

            
            
Suggest correction
Creating personal tab
Creating personal tab
You can edit any tab online and save it as your Personal.

You can edit, replace or remove any tab part or add personal notes – all changes will be seen only by you.

Personal tabs can be accessed anytime from any device, even offline.
Learn more »
comments
print report bad tab
2 comments total.
0 reply
sanchir 136 Mar 10, 2010 08:40 AM

dude, i was just about to upload strokes someday bass tab,,, but i decided to check is there any other first. and i found that yours is exactly same as i figured out! nicely done, buddy

0 reply
Awesomedoodman 10 Aug 28, 2010 02:20 AM

Looks pretty good, but the chorus sounds more this if you ask me

G|-------------------------------------------------------|-------|------|
D|---------2---------4--2--------------------------------|-------|------|
A|-----00----4--------------5-5-5-5-5-5-5-5-------------|-----x3|------|
E|-0-2------------2---------------------------5-5-5-5-5-5-|-0-2---|-5-5--|


oh and you can just play loose snares instead of 5th fret, it's the same.

guest
You may want to rate the tab now too:
select rating
Wanna post a correction for this tab? Suggest correction