Oops, an error
Loading. Please wait.

Take It Or Leave It Tab

version 1
version 1

Whole song

Interactive

74,388 views 21 this week
11 commentsread comments
1 2 3 4 5
worth learning
x 21
add to favorites
launch autoscroll
font size
0
reset
how to read this tab
guitar tuner
Tab Pro tools
  • play this tab
  • loop segment
  • change instrument
  • show fretboard
  • metronome
×
Best way to learn
"Take It Or Leave It"
Autoscroll
slow
fast
+/-
esc
set tempo
stop
Take it or leave it
by: The Strokes
Album: Is this It
Tabbed by: James Campbell
Standard tuning: e B G D A E
Part 1: both guitars
e|-------------------------------------------------------------------|
B|-------------------------------------------------------------------|
G|--9-8-7--5---------------------------------------------------------|
D|--9-8-7--5---------------------------------------------------------|
A|--7-6-5--3---------------------------------------------------------|
E|-------------------------------------------------------------------|

Part 2: guitar 1-used throughout song
e|-------------------------------------------------------------------|
B|--12--15-15--12--13-13--12--15-15--12-13-13-------------------------
G|-------------------------------------------------------------------|
D|-------------------------------------------------------------------|
A|-------------------------------------------------------------------|
E|-------------------------------------------------------------------|

Part 2: guitar 2
e|-------------------------------------------------------------------|
B|-------------------------------------------------------------------|
G|--55555555-33333333-77777777---------------------------------------|
D|--55555555-33333333-77777777---------------------------------------|
A|--33333333-11111111-55555555---------------------------------------|
E|-------------------------------------------------------------------|
    Leave me alone, i'm in control, i'm in control..........

Part 3: guitar 2
e|-------------------------------------------------------------------|
B|-------------------------------------------------------------------|
G|-5-55-55---3-33-33---7-77-77--------------------------------------
D|-5-55-55---3-33-33---7-77-77----------------------------------------
A|-3-33-33---1-11-11---5-55-55----------------------------------------
E|-------------------------------------------------------------------|
  she's on the mind of other guys, i know she was.... 

Part 2
e|-------------------------------------------------------------------|
B|-------------------------------------------------------------------|
G|--55555555-33333333-77777777---------------------------------------|
D|--55555555-33333333-77777777---------------------------------------|
A|--33333333-11111111-55555555---------------------------------------|
E|------------------------------------------------------------------|
   so now just take it, or leave it, and take it or leave it

Part 4
e|-------------------------------------------------------------------|
B|-------------------------------------------------------------------|
G|---555555555555555555----------------------------------------------
D|---555555555555555555--------------------------------------------
A|---333333333333333333-----------------------------------------------
E|-------------------------------------------------------------------|
   oh thats right.......................she's gonna 

Part 5
e|-------------------------------------------------------------------|
B|-------------------------------------------------------------------|
G|--9999-8888-77777777-55555555---------------------------------------
D|--9999-8888-77777777-55555555---------------------------------------
A|--7777-6666-55555555-33333333---------------------------------------
E|-------------------------------------------------------------------|
   let you down....... break your back.......

Part 6 
e|------------------------------------------------------------------|
B|-------------------------------------------------------------------|
G|--55555-----55555--------------------------------------------------
D|--55555--6--55555-6------------------------------------------------
A|--33333--6--33333-6-------------------------------------------------
E|---------4--------4------------------------------------------------|

Order of Song:
Part 1
Part 2 x4
Part 3 x1
Part 2 x2
Part 4 x1
part 5 x6
part 2 x3
Part 3 x1
part 2 x2
part 6 x12
part 5 x6
part 6 x1

email me at jamesc17@hotmail.com to tell me how i did
sorry but i don't know the solo
comments
print report bad tab
11 comments total. Showing first comments.
0 reply
Modst-Mouse wrote on June 20 2004, 12:00 am

the 12 1515 12 1313 part is wrong the correct way is 5 88 5 66

0 reply
son_house_fan wrote on October 31 2004, 12:00 am

Modst-Mouse is wright

0 reply
Z4QQQbatmansign wrote on May 10 2006, 09:15 pm

you have the guitar 1 wrong.... it's 0 3 0 1 on the high e string. LISTEN TO THE SONG

I want to post or [tab]
guest
You may want to rate the tab now too:
select rating
Please do not post tabs as comments. Select "correction" instead!