Oops, an error
Loading. Please wait.
We have an official Take It Or Leave It tab made by UG professional guitarists. Check out the tab »
×
521 views 1 this week
3 commentsread comments
1 2 3 4 5
x 4
add to favorites
guitar tuner
Autoscroll
slow
fast
+/-
esc
set tempo
stop
Author
File Format
Filesize
Instruments
.gp5
63 Kb
rhythm_guitars, lead_guitars, percussions
"Take It Or Leave It"
demo version
Play now

or get full version for Free

×
Get full version now!
Learn and play this song
in Tab Pro
Try for free

or get $10 off Welcome Bonus

Get welcome bonus
Get access to Tab Pro version of “Take It Or Leave It”!
Tab Pro is a premium guitar tab service, available on PC, Mac, iOS and Android
TRY FOR FREE
Your download will start in 7 seconds
×
Like this song? We have more! Follow us on Facebook for daily tips, lessons and other guitar-related content.
To download “Take It Or Leave It” Guitar Pro tab click button below
Please note that you must have Guitar Pro software installed on your
computer in order to view this file.
Suggest correction
comments
report bad tab
3 comments total.
+1 reply
happysad 1,636 Jan 16, 2012 05:40 AM

One mistake in that riff :

E|--------------------4--
B|--5--5--5--5--5-----4--
G|--5--5--5--5--5--0--4--
D|--5--5--5--5--5--0--6--
A|--3--3--3--3--3--0--6--
E|--------------------4--

I think it's actually G# and not G#m so the corrected version is:

E|--------------------4--
B|--5--5--5--5--5-----4--
G|--5--5--5--5--5--0--5--
D|--5--5--5--5--5--0--6--
A|--3--3--3--3--3--0--6--
E|--------------------4--

0 reply
rodri7c9 2,470 Jan 12, 2014 06:51 PM

the chorus is:

A G# D C
E|--5--4--------|
B|--5--4--6--5--|
G|--6--5--7--5--|
D|--7--6--7--5--|
A|--7--6--5--3--|
E|--5--4--------|

and not:

A G#/B D C
E|--5---4------------|
B|--5---4-----6---5--|
G|--6---5-----7---5--|
D|--7---6-----7---5--|
A|--7---6-----5---3--|
E|--5---7------------|

guest
You may want to rate the tab now too:
select rating