Oops, an error
Loading. Please wait.

Taken For A Fool Tab

version 1
version 1

Solo

Whole song

55,888 views 69 this week
3 commentsread comments
1 2 3 4 5
accurate
x 15
add to favorites
launch autoscroll
font size
0
reset
how to read this tab
guitar tuner
Tab Pro tools
  • play this tab
  • loop segment
  • change instrument
  • show fretboard
  • metronome
Autoscroll
slow
fast
+/-
esc
set tempo
stop
Contributor
Difficulty
intermediate
Guitar 1 tab - eBGDAE

Intro

e|----------~----------------|
B|----------15(HOLD)~~~~~~---|
G|---------------------------|
D|---------------------------|
A|---------------------------|
E|---------------------------|

Verse

e|------------------------------------------------------------------|
B|------------------------------------------------------------------|
G|---12-12----10--10--12/14--9-9---8-8----5-5--7/10-----------------| Repeat
D|----------12--12-----------------------7-7---------10-10----10-12-|
A|----------------------------------------------------------12------|
E|------------------------------------------------------------------|

Pre-Chorus

e|-------10----------12----------15-----------13----|
B|----------10----------13----------15------15--15/-|
G|-/10-10------/12-12------/15-15------14-14--------|
D|--------------------------------------------------|
A|--------------------------------------------------|
E|--------------------------------------------------|

--------10-----------12---------15-----------------------|
----------10-----------13---------15--11111111-13131313--|
-/10-10-------/12-12------/15-15------10101010-12121212--|
---------------------------------------------------------|
---------------------------------------------------------|
---------------------------------------------------------|

Chorus

e|----17----15------------------------13----12---------------------|
B|-13----13-----15151515-13131313--10----10-----11111111-13131313--|
G|--------------14141414-12121212---------------10101010-12121212--| Repeat
D|-----------------------------------------------------------------|
A|-----------------------------------------------------------------|
E|-----------------------------------------------------------------|

Solo

e|------------------------------------------------------------|
B|---------11-10----------------------------------------------|
G|---------------12-10-10-12--12-------10-12----------10------|
D|-12-10-12----------------------10-12-------12-12-10----10-12|
A|------------------------------------------------------------|
E|------------------------------------------------------------|

--------------------------------------------------|
-11-10--------------------------------------------|
-------12-10-12---------------------------6-7-8-9-|
----------------------------------7-8-9-10--------|
--------------------------7-8-9-10----------------|
-----------------8-9-10-11------------------------|

Verse

e|------------------------------------------------------------------|
B|------------------------------------------------------------------|
G|---12-12----10--10--12/14--9-9---8-8----5-5--7/10-----------------| Repeat
D|----------12--12-----------------------7-7---------10-10----10-12-|
A|----------------------------------------------------------12------|
E|------------------------------------------------------------------|

Pre-Chorus

(The guitar starts to play the third part of the pre-chorus)

e|-------10----------12----------15-----------13----|
B|----------10----------13----------15------15--15/-|
G|-/10-10------/12-12------/15-15------14-14--------|
D|--------------------------------------------------|
A|--------------------------------------------------|
E|--------------------------------------------------|

--------10-----------12---------15-----------------------|
----------10-----------13---------15--11111111-13131313--|
-/10-10-------/12-12------/15-15------10101010-12121212--|
---------------------------------------------------------|
---------------------------------------------------------|
---------------------------------------------------------|

Last Chorus:

e|----17----15------------------------13----12---------------------|
B|-13----13-----15151515-13131313--10----10-----11111111-13131313--|
G|--------------14141414-12121212---------------10101010-12121212--| 4x
D|-----------------------------------------------------------------|
A|-----------------------------------------------------------------|
E|-----------------------------------------------------------------|

End
                                                 2X
e|----17----15--------------------|-----13----12--------------------|
B|-13----13-----15151515-13131313-|--10----10-----11111111-13131313-|
G|--------------14141414-12121212-|---------------10101010-12121212-|
D|--------------------------------|---------------------------------|
A|--------------------------------|---------------------------------|
E|--------------------------------|---------------------------------|

----13----12-----------------------|
-10----10-----111111-131313--10----|
--------------101010-121212-(10)---|
-----------------------------------|
-----------------------------------|
-----------------------------------|

***********************************************************************

Guitar 2 tab - eBGDAE
Intro

e|--------------------------------------------------------|
B|--------------------------------------------------------|
G|--------------------------------------------------------|
D|--------------------------------------------------------|
A|--------------------------------------------------------|
E|--------------------------------------------------------|

Verse

e|------------------------------------------------------------------------------------------|
B|------------------------------------------------------------------------------------------|
G|--------------------------------------------99999999--------------------------------------|Repeat
D|-1212121212121212-10101010101010/14-9999999999999999-88888888-77777777-55555555-77777777--|
A|-1010101010101010--8-8-8-8-8-8-8/12-7777777777777777-66666666-55555555-33333333-55555555--|
E|------------------------------------------------------------------------------------------|

Pre-Chorus

e|-----10------12------15---------10------12------15--------------------|
B|-----10------13------15-15------10------13------15-11111111-13131313--|
G|-/10-10--/12-12--/15-15-14--/10-10--/12-12--/15-15-10101010-12121212--|
D|----------------------------------------------------------------------|
A|----------------------------------------------------------------------|
E|----------------------------------------------------------------------|

Chorus

e|-------------------------------------------------------------------------|
B|-1313131313131313-15151515-13131313--1010101010101010-11111111-13131313--|
G|-1212121212121212-14141414-12121212--1010101010101010-10101010-12121212--|Repeat
D|-------------------------------------------------------------------------|
A|-------------------------------------------------------------------------|
E|-------------------------------------------------------------------------|

Solo

No Guitar

Verse

e|------------------------------------------------------------------------------------------|
B|------------------------------------------------------------------------------------------|
G|--------------------------------------------99999999--------------------------------------|Repeat
D|-1212121212121212-10101010101010/14-9999999999999999-88888888-77777777-55555555-77777777--|
A|-1010101010101010--8-8-8-8-8-8-8/12-7777777777777777-66666666-55555555-33333333-55555555--|
E|------------------------------------------------------------------------------------------|

Pre-Chorus

(The guitar starts to play the second and the fourth part of the pre-chorus)

e|-----10------12------15---------10------12------15--------------------|
B|-----10------13------15-15------10------13------15-11111111-13131313--|
G|-/10-10--/12-12--/15-15-14--/10-10--/12-12--/15-15-10101010-12121212--|
D|----------------------------------------------------------------------|
A|----------------------------------------------------------------------|
E|----------------------------------------------------------------------|

Chorus

e|-------------------------------------------------------------------------|
B|-1313131313131313-15151515-13131313--1010101010101010-11111111-13131313--|
G|-1212121212121212-14141414-12121212--1010101010101010-10101010-12121212--|4X
D|-------------------------------------------------------------------------|
A|-------------------------------------------------------------------------|
E|-------------------------------------------------------------------------|

End
                                                       2x
e|------------------------------------|--------------------------------------|--------------------|
B|-1313131313131313-15151515-13131313-|-101010101010101010-11111111-13131313-|-111111-131313--10--|
G|-1212121212121212-14141414-12121212-|-101010101010101010-10101010-12121212-|-101010-121212-(10)-|
D|------------------------------------|--------------------------------------|--------------------|
A|------------------------------------|--------------------------------------|--------------------|
E|------------------------------------|--------------------------------------|--------------------|

*****************************************************************************

Bass Tab - DADG

Tabbed by ferjtankian

00:06 Intro-Verse 1 "Sister.."
G----------------------------------------------------------------------------|
D---------------------------7~---------------------------3~------------------|
A--5r-----10-10~---5-8-5-8------7-7--------6-6--0-3-0-3------3-3---0-3-5-----|
D------------------------------------------------------------------------0-0-|


G----------------------------------------------------------------------------|
D---------------------------7~---------------------------3~------------------|
A---------10-10~---5-8-5-8------7-7--------6-6--0-3-0-3------3-3---0-3-5-----|
D------------------------------------------------------------------------0-0-|


G----------7------------5------------------------------------7~-----|
D-------7-----7-----------5---------------5----------------7--------|
A--5-8-----------8-5--------5-3---------5---5---------5-8-----------|
D----------------------------------5-7---------7-5------------------|


G----------7------------5--------------------------------------|
D-------7-----7-----------5---------------5---------5555-7777--|
A--5-8-----------8-5--------5-3---------5---5------------------|
D----------------------------------5-7---------7-5-------------|


00:52 Chorus  "You get taken all the....."
G--------------------------------------------|
D---33333333---------------------------------|
A------------5555--3333------------5555-3333-|  X 4
D------------------------33333333------------|


01:20 Break to Verse 2 (Solo?)


G----------------------------------------------------------------5----5---5-|
D---------------------------------------------------------------------------|
A-5~--555----8~--888----3~--333---------------------8-8-8-----33---33---3---|
D---------------------------------5~--55----8-8-8---------------------------|

G----5----5---5----|
D------------------|
A-33---33---3------|
D------------------|

01:33 Verse 2

G----------------------------------------------------------------------------|
D---------------------------7~---------------------------3~------------------|
A---------10-10~---5-8-5-8------7-7--------6-6--0-3-0-3------3-3---0-3-5-----|
D------------------------------------------------------------------------0-0-|


 *10'S
G-------------------------------------------------------------------------|
D-------------------------------7777777------------------------33333333---|
A--1010101010101010*---8888888-----------77777777---66666666--------------|
D-------------------------------------------------------------------------|

G------------------------|
D------------------------|
A---33333333--55555555---|
D------------------------|


02:02

G----------7------------5------------------------------------7~-----|
D-------7-----7-----------5---------------5----------------7--------|
A--5-8-----------8-5--------5-3---------5---5---------5-8-----------|
D----------------------------------5-7---------7-5------------------|


G---------------------------------------|
D---------------------------------------|
A---5~--555---3~-333----------5~------3-|
D---------------------5~-555------5-7---|

G----------7------------5------------------------------------7~-----|
D-------7-----7-----------5---------------5----------------7--------|
A--5-8-----------8-5--------5-3---------5---5---------5-8-----------|
D----------------------------------5-7---------7-5------------------|

G----------7------------5--------------------------------------|
D-------7-----7-----------5---------------5---------5555-7777--|
A--5-8-----------8-5--------5-3---------5---5------------------|
D----------------------------------5-7---------7-5-------------|


02:30 Final Chorus    "You get taken..."


G--------------------------------------------|
D---33333333---------------------------------|
A------------5555--3333------------5555-3333-|  X5
D------------------------33333333------------|

on the 6th time when Julian repeats "I don't know why..." theres is a little variation,
just listen and you'll hear it

G----------------------------------------------------|
D----------------------------------------------------|
A------------5555--3333------------5-5-5-3-3-3-------|
D---33333333-------------33333333---------------3r---|

**************************************************************

Thank you to read, vote and comment!
comments
print report bad tab
3 comments total.
+1 reply
MrDraGoOn wrote on October 5 2011, 09:21 pm

Good tab but I think the solo is

e|----------------------------------------------------------------------|
B|---------11-10--------------------------------------------------------|
G|---------------10-12-10-10-12--12-------10-12----------10-10----------|
D|-12-10-12-------------------------10-12-------12-12-10-------10-12----|
A|----------------------------------------------------------------------|
E|----------------------------------------------------------------------|

-------------------------------------------------------|
-11-10-----------------------------------------2-3-4-5-|
-------12-10-12-12-12------------------2-3-4-5---------|
-------------------------------2-3-4-5-----------------|
-----------------------3-4-5-6-------------------------|
-------------------------------------------------------|

And the lead guitar has some bends on the verse at the G|9-9--8-8 part
g|---9-9 9b10r9b10r9b10---|

and then a slide on the second time though

g|--9-9 9/1\9/1\9/1--|
Something like that.

0 reply
Izaak247 wrote on August 5 2012, 01:14 pm

Is this all by ear? Please tell me I need tips on transcribing

0 reply
Hobo11 wrote on August 31 2014, 02:21 pm

Combined with the above correction, this is the best tab there is.

I want to post or [tab]
guest
You may want to rate the tab now too:
select rating
Please do not post tabs as comments. Select "correction" instead!