Oops, an error
Loading. Please wait.

The End Has No End Bass Tab

version 1
version 1

Whole song

7,934 views 18 this week
1 commentread comment
1 2 3 4 5
x 7
add to favorites
launch autoscroll
font size
0
reset
guitar tuner
×
Best way to learn
"The End Has No End"
Autoscroll
slow
fast
+/-
esc
set tempo
stop
   Intro
G||-----------------|-----------------|-----------------|-----------------||
D||-7-7-7-7-7-7-7-7-|-----------------|-6-6-6-6-6-6-6-6-|-----------------||
A||-----------------|-7-7-7-7-7-7-7-7-|-----------------|-6-6-6-6-6-6-6-6-|| 
E||-----------------|-----------------|-----------------|-----------------||

   Riff one
 ||-----------------|-----------------|-----------------|-----------------|
 ||-----------------|-----------------|-----------------|-----------------|
 ||-4-4-4-4-4-4-4-4-|-4-4-4-4-4-4-4-4-|-4-4-4-4-4-4-4-4-|-4-4-4-4-4-4-4-4-|
 ||-----------------|-----------------|-----------------|-----------------|

  |-----------------|-----------------||  (2x riff one during the repeat)
  |-----------------|-----------------||
  |-----------------|-----------------||  (and play 2x the A or LA during
  |-4-4-4-4-4-4-4-4-|-4-4-4-4-4-4-4-4-||        <   the repeat) 

   Riff two
 ||-----------------|-----------------|-----------------|------------------|
 ||-----------------|-----------------|-----------------|-----------------*|
 ||-4-4-4-4-4-4-4-4-|-----------------|-8-8-8-8-8-8-8-8-|-----------------*|
 ||-----------------|-6-6-6-6-6-6-6-6-|-----------------|-4-4-4-4-4-4-4-4--|

  |-----------------|-----------------|-----------------|-----------------|
  |-----------------|-----------------|-----------------|-----------------|
  |-4-4-4-4-4-4-4-4-|-----------------|-----------------|-----------------|
  |-----------------|-6-6-6-6-6-6-6-6-|-1-1-1-1-1-1-1-1-|-4-4-4-4-4-4-4-4-|

  |-----------------|-----------------|-----------------|-----------------|
  |-----------------|-----------------|-----------------|-----------------|
  |-4-4-4-4-4-4-4-4-|-----------------|-8-8-8-8-8-8-8-8-|-8-8-8-8-8-8-8-8-|
  |-----------------|-6-6-6-6-6-6-6-6-|-----------------|-----------------|

  |-----------------|-----------------||
  |-----------------|-----------------||
  |-----------------|-----------------||
  |-4-4-4-4-4-4-4-4-|-4-4-4-4-4-4-4-4-||

   Riff three (chorus)
 ||-----------------|-----------------|-----------------|-----------------|
 ||-----------------|-----------------|-----------------|-----------------|
 ||-----------------|-4-4-4-4-4-4-4-4-|-----------------|-6-6-6-6-6-6-6-6-|
 ||-2-2-2-2-2-2-2-2-|-----------------|-4-4-4-4-4-4-4-4-|-----------------|

  |-----------------|-----------------|-----------------|-----------------|
  |-----------------|-----------------|-----------------|-----------------|
  |-----------------|-4-4-4-4-4-4-4-4-|-----------------|-6-6-6-6-6-6-6-6-|
  |-2-2-2-2-2-2-2-2-|-----------------|-4-4-4-4-4-4-4-4-|-----------------|

  |-----------------||
  |-----------------||      Repeat the above (exept the intro)
  |-6-6-6-6-6-6-6-6-||
  |-----------------||

   After the repeat:
 ||-----------------|-----------------|-----------------|-----------------|
 ||-----------------|-----------------|-----------------|-----------------|
 ||-----------------|-4-4-4-4-4-4-4-4-|-----------------|-6-6-6-6-6-6-6-6-|
 ||-2-2-2-2-2-2-2-2-|-----------------|-4-4-4-4-4-4-4-4-|-----------------|

  |-----------------|-----------------|-----------------|------------------||
  |-----------------|-----------------|-----------------|-----------------*||
  |-----------------|-4-4-4-4-4-4-4-4-|-----------------|-6-6-6-6-6-6-6-6-*||
  |-2-2-2-2-2-2-2-2-|-----------------|-4-4-4-4-4-4-4-4-|------------------||

 ||-----------------|-----------------||
 ||-----------------|-----------------||
 ||-6-6-6-6-6-6-6-6-|-6-6-6-6-6-6-6-6-||
 ||-----------------|-----------------||

   Outro
 ||-----------------|-----------------|-----------------|-----------------||
 ||-7-7-7-7-7-7-7-7-|-----------------|-6-6-6-6-6-6-6-6-|-----------------||
 ||-----------------|-7-7-7-7-7-7-7-7-|-----------------|-6-6-6-6-6-6-6-6-|| 
 ||-----------------|-----------------|-----------------|-----------------||
Suggest correction
comments
print report bad tab
1 comment total.
0 reply
tyler200100 10 Nov 04, 2010 07:34 PM

great tab only thin wrong that i saw was intro and outro should be played

G||--------|--------|---------|--------||
D||-7-7-7-7|--------|-6-6-6-6-|--------||
A||--------|-7-7-7-7|---------|-6-6-6-6||
E||--------|--------|---------|--------||

guest
You may want to rate the tab now too:
select rating
Wanna post a correction for this tab? Suggest correction