Oops, an error
Loading. Please wait.
We have an official The Modern Age tab made by UG professional guitarists. Check out the tab »
×
16,060 views 12 this week
7 commentsread comments
1 2 3 4 5
x 10
add to favorites
×
Save as Personal and add changes to this tab that will be seen only by you. Learn more ›
×
You can save this tab as Personal to edit and correct it or add notes. All changes will be seen only by you. Learn more »
launch autoscroll
font size
0
reset
how to read this tab
guitar tuner
edit
Autoscroll
slow
fast
+/-
esc
set tempo
stop
Author
Difficulty
-----------------------------------------------------------------------------
                             The Modern Age - The Strokes
-----------------------------------------------------------------------------
Tabbed by: Chris R from Azilda

**INTRO**
e|-2-----0-----2-----0------2-----0-----2-----0------0-0-0-0-----------------|
B|-1-x4--1-x4--1-x4--1--x4--1-x4--1-x4--1-x4--1--x3--0-0-0-0-----------------|
G|-2-----2-----2-----2------2-----2-----2-----2------0-0-0-0-----------------|
D|-0-----0-----0-----0------0-----0-----0-----0------0-0-0-0-----------------|
A|-0-----0-----0-----0------0-----0-----0-----0------------------------------|
E|---------------------------------------------------------------------------|

**VERSE**
e|-------------------------¦-------------------------¦
B|-------------------------¦-------------------------¦
G|-11-----9----11-----9----¦-9-----7-----9-----7-----¦    x2
D|-x--x4--x-x4-x--x4--x-x4-¦-x-x4--x-x4--x-x4--x-x4--¦
A|-9------7----9------7----¦-7-----5-----7-----5-----¦
E|-------------------------¦-------------------------¦

**CHORUS**
e|-----------------------------------¦
B|-7---------8--------7--------2-----¦
G|-7---------9--------7--------2-----¦  x2
D|-7--x4-----9--x4----7--x4----2--x4-¦
A|-0---------7--------0--------0-----¦
E|-----------------------------------¦

**SOLO**
e|---------------------------------------------------------------------------|
B|----8b10-8b9-8b10-8b9-8p6---6---6-8-8b10p6---6---6-8-8b10-8-8b10-8-8b10-8--|
G|--------------------------7---7------------7---7---------------------------|
D|---------------------------------------------------------------------------|
A|---------------------------------------------------------------------------|
E|---------------------------------------------------------------------------|

e|8b10-8 8b10p6---¦-----------------------------------------------------------|
B|-------------7--¦-----------------------------------------------------------|
G|----------------¦-----------------------------------------12009007005004000-|
D|----------------¦00000001200900700500300030050070090012000------------------|
A|----------------¦-----------------------------------------------------------|
E|----------------¦-----------------------------------------------------------|

e|------------------------------------------------13b15-13b15--13b15----------|
B|---------------000-12-12-12--10-10-12-12\0-0-----------------------13\------|
G|-40050070090012000-12-12-12--10-10-12-12\0-0-----------------------13\------|
D|---------------000-12-12-12--10-10-12-12\0-0--------------------------------|
A|----------------------------------------------------------------------------|
E|----------------------------------------------------------------------------|


| b  bend until it sounds like the number next to it
| /  slide up
| \  slide down
| h  hammer-on
| p  pull-off
| ~  vibrato
| +  harmonic
| x  Mute note
=============================================================================

            
            
Suggest correction
Creating personal tab
Creating personal tab
You can edit any tab online and save it as your Personal.

You can edit, replace or remove any tab part or add personal notes – all changes will be seen only by you.

Personal tabs can be accessed anytime from any device, even offline.
Learn more »
comments
print report bad tab
7 comments total. Showing first comments.
0 reply
cyberbeach 10 Dec 26, 2005 04:12 AM

perfect!

0 reply
MarcW 246 Jan 04, 2006 03:43 AM

it's great, but youre missing Albert's Rythm guitar.

the other tab got his gutiar right.

after saying that, this tab is great, especially like the solo!

0 reply
chrissya8 10 Mar 11, 2006 06:01 AM

intro is wrong mate.

guest
You may want to rate the tab now too:
select rating
Wanna post a correction for this tab? Suggest correction