Oops, an error
Loading. Please wait.
We have Chord Pro version of Threat Of Joy.
It's the closest thing you can get to the original song and it has interactive parts. Check out the tab »
×

Threat Of Joy tab

version 1
version 1

Whole song

  • This tab corrects errors seen in the other version... Show more

Interactive

16,474 views 78 this week
7 commentsread comments
1 2 3 4 5
x 11
add to favorites
×
Save as Personal and add changes to this tab that will be seen only by you. Learn more ›
×
You can save this tab as Personal to edit and correct it or add notes. All changes will be seen only by you. Learn more »
launch autoscroll
font size
0
reset
how to read this tab
guitar tuner
backing track
0:00
0:00
edit
Autoscroll
slow
fast
+/-
esc
set tempo
stop
Author
The Strokes-Threat of Joy


[Intro] 

Bass
e|---------------------------------------------------------------------------|
B|---------------------------------------------------------------------------|
G|---------------------------------------------------------------------------|
D|---------------------------------------------------------------------------|
A|---------------------------------------------------------------------------|
E|--------8\3/8\3----8-------------------------------------------------------|


[Verse 1]

(Main chords)

Guitar 1
     C           Dm       Em         Dm
e|---------------------------------------------------------------------------|
B|---5------------6--------8----------6--------------------------------------|
G|---5------------7--------9----------7--------------------------------------|
D|---5------------7--------9----------7--------------------------------------|
A|---3------------5--------7----------5--------------------------------------|
E|---------------------------------------------------------------------------|

Guitar 2
e|---8-----------10-------12---------10--------------------------------------|
B|---8-----------10-------12---------10--------------------------------------|
G|---9-----------10-------12---------10--------------------------------------|
D|---------------------------------------------------------------------------|
A|---------------------------------------------------------------------------|
E|---------------------------------------------------------------------------|


[Chorus]

Guitar 1
e|---------------------------------------------------------------------------|
B|---------------------------------------------------------------------------|
G|---------------------------------------------------------------------------|
D|----5---5--5-----5----5--------------5---5--5----5----5--------------------|
A|---------------------------------------------------------------------------|
E|--3----3--3----3----3--------------3---3--3----3----3----------------------|

e|---------------------------------------------------------------------------|
B|---------------------------------------------------------------------------|
G|---------------------------------------------------------------------------|
D|----5---5-5----5-----5-----------------------------------------------------|
A|---3---3-3----3----3-------------------------------------------------------|
E|---------------------------------------------------------------------------|

e|---------------------------------------------------------------------------|
B|---------------------------------------------------------------------------|
G|----5---5-5----5-----5-4---------------------------------------------------|
D|---3---3-3----3-----3------------------------------------------------------|
A|---------------------------------------------------------------------------|
E|---------------------------------------------------------------------------|

Guitar 2
e|---------------------------------------------------------------------------|
B|---------------------------------------------------------------------------|
G|-----5-------5--------5-------5------4-------4--------4--------4-----------|
D|-----5-------5--------5-------5------5-------5--------5--------5-----------|
A|---------------------------------------------------------------------------|
E|--3----3--3----3--3----3--3-------3----3--3----3--3----3--3-----3----------|
.
e|---------------------------------------------------------------------------|
B|-----5-------5--------5--------5-----------5-------5--------5--------5-----|
G|-----5-------5--------5--------5-----------5-------5--------5--------5-----|
D|-----------------------------------------3----3--3----3--3-----3--3----3---|
A|--3-----3--3----3--3-----3--3----3-----------------------------------------|
E|---------------------------------------------------------------------------|

(little riff back to verse)


[Riff 1]

e|---------------------------------------------------------------------------|
B|---------------------------------------------------------------------------|
G|---------------------------------------------------------------------------|
D|---------------------------------------------------------------------------|
A|-------------------------------------------------------5-5-5-5-5-5-5-5-----|
E|--5-5-5-5-5-5-5-5----7-7-7-8-8-8---3-3-3-3-3-3-3-3-------------------------|

Rhythm Guitar 
          Dm                            G
e|--------5-----------------------------3------------------------------------|
B|--------6-----------------------------3------------------------------------|
G|--------7-----------------------------4------------------------------------|
D|--------7-----------------------------5------------------------------------|
A|--------5-----------------------------5------------------------------------|
E|--------------------------------------3------------------------------------|


[Verse]

Main chords
Guitar 1
     C           Dm       Em         Dm
e|---------------------------------------------------------------------------|
B|---5------------6--------8----------6--------------------------------------|
G|---5------------7--------9----------7--------------------------------------|
D|---5------------7--------9----------7--------------------------------------|
A|---3------------5--------7----------5--------------------------------------|
E|---------------------------------------------------------------------------|

Guitar 2
e|---8-----------10-------12---------10--------------------------------------|
B|---8-----------10-------12---------10--------------------------------------|
G|---9-----------10-------12---------10--------------------------------------|
D|---------------------------------------------------------------------------|
A|---------------------------------------------------------------------------|
E|---------------------------------------------------------------------------|


[Chorus]

Guitar 1
e|---------------------------------------------------------------------------|
B|---------------------------------------------------------------------------|
G|---------------------------------------------------------------------------|
D|---5---5-5----5-----5-------------5---5-5----5----5------------------------|
A|---------------------------------------------------------------------------|
E|--3---3-3----3----3--------------3---3-3----3----3-------------------------|

e|---------------------------------------------------------------------------|
B|---------------------------------------------------------------------------|
G|---------------------------------------------------------------------------|
D|----5---5-5----5-----5-----------------------------------------------------|
A|---3---3-3----3----3-------------------------------------------------------|
E|---------------------------------------------------------------------------|

e|---------------------------------------------------------------------------|
B|---------------------------------------------------------------------------|
G|----5---5-5----5-----5-4---------------------------------------------------|
D|---3---3-3----3-----3------------------------------------------------------|
A|---------------------------------------------------------------------------|
E|---------------------------------------------------------------------------|

Guitar 2
e|---------------------------------------------------------------------------|
B|---------------------------------------------------------------------------|
G|-----5-------5--------5-------5------4-------4--------4--------4-----------|
D|-----5-------5--------5-------5------5-------5--------5--------5-----------|
A|---------------------------------------------------------------------------|
E|--3----3--3----3--3----3--3-------3----3--3----3--3----3--3-----3----------|
.
e|---------------------------------------------------------------------------|
B|-----5-------5--------5--------5-----------5-------5--------5--------5-----|
G|-----5-------5--------5--------5-----------5-------5--------5--------5-----|
D|-----------------------------------------3----3--3----3--3-----3--3----3---|
A|--3-----3--3----3--3-----3--3----3-----------------------------------------|
E|---------------------------------------------------------------------------|

(little riff back to verse)


[Riff 1]

e|---------------------------------------------------------------------------|
B|---------------------------------------------------------------------------|
G|---------------------------------------------------------------------------|
D|---------------------------------------------------------------------------|
A|-------------------------------------------------------5-5-5-5-5-5-5-5-----|
E|--5-5-5-5-5-5-5-5----7-7-7-8-8-8---3-3-3-3-3-3-3-3-------------------------|

Rhythm Guitar 

          Dm                            G
e|--------5-----------------------------3------------------------------------|
B|--------6-----------------------------3------------------------------------|
G|--------7-----------------------------4------------------------------------|
D|--------7-----------------------------5------------------------------------|
A|--------5-----------------------------5------------------------------------|
E|--------------------------------------3------------------------------------|


[Verse]

Main chords
Guitar 1
     C           Dm       Em         Dm
e|---------------------------------------------------------------------------|
B|---5------------6--------8----------6--------------------------------------|
G|---5------------7--------9----------7--------------------------------------|
D|---5------------7--------9----------7--------------------------------------|
A|---3------------5--------7----------5--------------------------------------|
E|---------------------------------------------------------------------------|

Guitar 2
e|---8-----------10-------12---------10--------------------------------------|
B|---8-----------10-------12---------10--------------------------------------|
G|---9-----------10-------12---------10--------------------------------------|
D|---------------------------------------------------------------------------|
A|---------------------------------------------------------------------------|
E|---------------------------------------------------------------------------|


[Solo]

Version 1
e|-12-----------12------------8---------10--8------10-------12---------------|
B|-------13-----------13----------10-------------------12--------12----------|
G|----12----12-----12-----------10---10---10--10-----12--12----12------------|
D|---------------------------------------------------------------------------|
A|---------------------------------------------------------------------------|
E|---------------------------------------------------------------------------|

e|-8------------10-----------------------------------------------------------|
B|------10-----------10------------------------------------------------------|
G|---10----10-----10----10---------------------------------------------------|
D|---------------------------------------------------------------------------|
A|---------------------------------------------------------------------------|
E|---------------------------------------------------------------------------|

e|-12-----------12------------8---------10--8------10-------12---------------|
B|-------13-----------13----------10-------------------12--------12----------|
G|----12----12-----12-----------10---10---10--10-----12--12----12------------|
D|---------------------------------------------------------------------------|
A|---------------------------------------------------------------------------|
E|---------------------------------------------------------------------------|

e|-8------------10-----------------------------------------------------------|
B|------10-----------10------------------------------------------------------|
G|---10----10-----10----10---------------------------------------------------|
D|---------------------------------------------------------------------------|
A|---------------------------------------------------------------------------|
E|---------------------------------------------------------------------------|

e|-12-----------12------------8---------10--8------10-------12---------------|
B|-------13-----------13----------10-------------------12--------12----------|
G|----12----12-----12-----------10---10---10--10-----12--12----12------------|
D|---------------------------------------------------------------------------|
A|---------------------------------------------------------------------------|
E|---------------------------------------------------------------------------|

e|-8------------8------------------------------------------------------------|
B|------10-----------10------------------------------------------------------|
G|---10----10-----10----10---------------------------------------------------|
D|---------------------------------------------------------------------------|
A|---------------------------------------------------------------------------|
E|---------------------------------------------------------------------------|

e|-12-----------12------------8---------10--8------10-------12---------------|
B|-------13-----------13----------10-------------------12--------12----------|
G|----12----12-----12-----------10---10---10--10-----12--12----12------------|
D|---------------------------------------------------------------------------|
A|---------------------------------------------------------------------------|
E|---------------------------------------------------------------------------|

e|-8------------8--------8---------------------------------------------------|
B|------10-----------10-10---------------------------------------------------|
G|---10----10-----10----10---------------------------------------------------|
D|---------------------------------------------------------------------------|
A|---------------------------------------------------------------------------|
E|---------------------------------------------------------------------------|

Alternative Version
e|---------------------------------------------------------------------------|
B|--17-----------17-----------13------15--13---------15---------17-----------|
G|-------17----------17----------14----------------------16--------16--------|
D|----17---17------17----------15--15---15---15-------17---17----17----------|
A|---------------------------------------------------------------------------|
E|---------------------------------------------------------------------------|

e|---------------------------------------------------------------------------|
B|--13-------------15--------------------------------------------------------|
G|------14-------------14----------------------------------------------------|
D|----15---15--------15---15-------------------------------------------------|
A|---------------------------------------------------------------------------|
E|---------------------------------------------------------------------------|

e|---------------------------------------------------------------------------|
B|--17-----------17-----------13------15--13---------15---------17-----------|
G|-------17----------17----------14----------------------16--------16--------|
D|----17---17------17----------15--15---15---15-------17---17----17----------|
A|---------------------------------------------------------------------------|
E|---------------------------------------------------------------------------|

e|---------------------------------------------------------------------------|
B|--13-------------15--------------------------------------------------------|
G|------14-------------14----------------------------------------------------|
D|----15---15--------15---15-------------------------------------------------|
A|---------------------------------------------------------------------------|
E|---------------------------------------------------------------------------|

e|---------------------------------------------------------------------------|
B|--17-----------17-----------13------15--13---------15---------17-----------|
G|-------17----------17----------14----------------------16--------16--------|
D|----17---17------17----------15--15---15---15-------17---17----17----------|
A|---------------------------------------------------------------------------|
E|---------------------------------------------------------------------------|

e|---------------------------------------------------------------------------|
B|--13-------------13--------------------------------------------------------|
G|------14-------------14----------------------------------------------------|
D|----15---15--------15---15-------------------------------------------------|
A|---------------------------------------------------------------------------|
E|---------------------------------------------------------------------------|


e|---------------------------------------------------------------------------|
B|--17-----------17-----------13------15--13---------15---------17-----------|
G|-------17----------17----------14----------------------16--------16--------|
D|----17---17------17----------15--15---15---15-------17---17----17----------|
A|---------------------------------------------------------------------------|
E|---------------------------------------------------------------------------|

e|---------------------------------------------------------------------------|
B|--13-------------13-----13-------------------------------------------------|
G|------14-------------14-14-------------------------------------------------|
D|----15---15--------15---15-------------------------------------------------|
A|---------------------------------------------------------------------------|
E|---------------------------------------------------------------------------|


[Outro]

Bass part
e|---------------------------------------------------------------------------|
B|---------------------------------------------------------------------------|
G|---------------------------------------------------------------------------|
D|----2----2---2---2------5-5------------------------------------------------|
A|--3----3---3----3---3---------------------3-3------------------------------|
E|-----------------------------5-5-5-5-5-5-----------------------------------|

Guitar 1
        C           Am
e|-------------------0-------------------------------------------------------|
B|------5------------1-------------------------------------------------------|
G|------5------------2-------------------------------------------------------|
D|------5------------2-------------------------------------------------------|
A|------3------------0-------------------------------------------------------|
E|---------------------------------------------------------------------------|

Guitar 2
e|------------------------3----------13-----12------10-----12--8--7--8-10--7-|
B|-13---------------------5---------------------------------8--------------8-|
G|------------------------5-------/14-----12-------9--------9--------------9-|
D|---------------------------------------------------------------------------|
A|---------------------------------------------------------------------------|
E|---------------------------------------------------------------------------|
      (let it ring)
  
e|--8------13-----12---13---15--12--7--8--10--7-8----------------------------|
B|---------------------13---------------------8------------------------------|
G|-------14-----12-----14----------9----------9------------------------------|
D|---------------------------------------------------------------------------|
A|---------------------------------------------------------------------------|
E|---------------------------------------------------------------------------|

e|-----13----12-----10-------12---8------------------------------------------|
B|----------------------------8---8------------------------------------------|
G|--14----12------9-----------9---9------------------------------------------|
D|---------------------------------------------------------------------------|
A|---------------------------------------------------------------------------|
E|---------------------------------------------------------------------------|

e|-----13----12-----10-------12---8------------------------------------------|
B|----------------------------8---8------------------------------------------|
G|--14----12------9-----------9---9------------------------------------------|
D|---------------------------------------------------------------------------|
A|---------------------------------------------------------------------------|
E|---------------------------------------------------------------------------|

e|-----13-----12---13---15--12-----------------------------------------------|
B|-----------------13--------------------------------------------------------|
G|---14-----12-----14--------------------------------------------------------|
D|---------------------------------------------------------------------------|
A|---------------------------------------------------------------------------|
E|---------------------------------------------------------------------------|

e|-----13----12-----10-------12---8----7-------------------------------------|
B|----------------------------8---8----8-------------------------------------|
G|--14----12------9----9------9---9----9-------------------------------------|
D|---------------------------------------------------------------------------|
A|---------------------------------------------------------------------------|
E|---------------------------------------------------------------------------|
                                        (let it ring)


************************************

| /  Slide up
| \  Slide down

************************************

            
            
Suggest correction
Creating personal tab
Creating personal tab
You can edit any tab online and save it as your Personal.

You can edit, replace or remove any tab part or add personal notes – all changes will be seen only by you.

Personal tabs can be accessed anytime from any device, even offline.
Learn more »
comments
print report bad tab
7 comments total. Showing first comments.
0 reply
robertot52399 10 Jun 27, 2016 10:33 AM, edited at 02:34 pm

Lorem ipsum dolor sit amet, consectetur adipiscing elit. Aliquam nec ex tempor, mattis mi ullamcorper, facilisis ipsum. Donec pellentesque ligula sit amet sapien venenatis ultricies. Aenean a convallis dolor, elementum volutpat lectus. Sed viverra eget quam id condimentum.

-1 reply
robertot52399 10 Jun 27, 2016 10:33 AM

Didn't like this contribution

-1 reply
fael097 747 Jun 29, 2016 06:00 AM

is this tab for real? it's terribly wrong.

guest
You may want to rate the tab now too:
select rating
Wanna post a correction for this tab? Suggest correction