Oops, an error
Loading. Please wait.

Under Cover Of Darkness Bass Tab

version 1
version 1
38,213 views 93 this week
no commentswrite comment
1 2 3 4 5
accurate
x 2
add to favorites
launch autoscroll
font size
0
reset
guitar tuner
Tab Pro tools
  • play this tab
  • loop segment
  • change instrument
  • show fretboard
  • metronome
Autoscroll
slow
fast
+/-
esc
set tempo
stop
Contributor
Difficulty
-------------------------------------------------------------------------------
         	     Under Cover Of Darkness -- The Strokes
-------------------------------------------------------------------------------

Tabbed By : Bentley
e-mail: bentley.max@gmail.com
Tuning: standard

listen to the song for rhythm

intro
G||--------------------------------------||
D||o------------------------------------o||
A||o------------------------------------o||
E||---7-7------7-7-------9-9--------9-9--|| x2

0:19                   parentheses are optional phrasings
G|--------------------(4)------------------------------------------------|
D|---------------------9---------4--7--4--------------4--7--4------------|
A|-------------------------4--7-----------7-----4--7-----------7---------|
E|-7----7------7-7---------------------------7--------------------7------|

G|--------------------8---------3--6--3--------------3--6--3-------------|
D|------------------------3--6-----------6-----3--6-----------6----------|
A|-6----6------6-6--------------------------6---------------------6------|
E|-----------------------------------------------------------------------|

G|-------------------(1)------------------------------------------------------------|
D|--------------------6-----------1---4---1-------------------1---4---1-------------|
A|------------------------1---4---------------4-------1---4---------------4---------|
E|-4----4------4-4--------------------------------4---------------------------4-----|

G|-------------------------------------------------|
D|-------------------------------------------------|
A|-7----7------7-7----------7----7------7-7--------|
E|-------------------------------------------------|

0:38
G|--------------------(4)------------------------------------------------|
D|---------------------9---------4--7--4--------------4--7--4------------|
A|-------------------------4--7-----------7-----4--7-----------7---------|
E|-7----7------7-7---------------------------7--------------------7------|

G|--------------------8---------3--6--3--------------3--6--3-------------|
D|------------------------3--6-----------6-----3--6-----------6----------|
A|-6----6------6-6--------------------------6---------------------6------|
E|-----------------------------------------------------------------------|

G|----------------------------------------------------|
D|----------------------------------------------------|
A|---7------------------------------------------------|
E|----------------9--------------4-------------9------|

G|-------------------------------------------------|
D|-------------------------------------------------|
A|-7----7------7-7----------7----7------7-7--------|
E|-------------------------------------------------|

0:58
G||--------------------------------------------------------------------------------||
D||o------------------------------------------------------------------------------o||
A||o---------------------7--7-------7--7------------------------------------------o||
E||--4--4-----4--4--------------------------7--7------7--7-------2--2-------2--2---|| x2

1:17
G||------------------------------------------------------------------------------------||
D||o----------------------------------------------------------------------------------o||
A||o---------------4--6--7--7-------7--7--6--4----------------------------------------o||
E||--4--4-----4-----------------------------------7--7------7--7-------2--2-------2--2-|| x2

1:36
G|--------------------------------------|
D|--------------------------------------|
A|--------------------------------------|
E|---7-7------7-7-------9-9--------9-9--|

1:46
G|--------------------(4)------------------------------------------------|
D|---------------------9---------4--7--4--------------4--7--4------------|
A|-------------------------4--7-----------7-----4--7-----------7---------|
E|-7----7------7-7---------------------------7--------------------7------|

G|--------------------8---------3--6--3--------------3--6--3-------------|
D|------------------------3--6-----------6-----3--6-----------6----------|
A|-6----6------6-6--------------------------6---------------------6------|
E|-----------------------------------------------------------------------|

G|----------------------------------------------------|
D|----------------------------------------------------|
A|---7------------------------------------------------|
E|----------------9--------------4-------------9------|

G|-------------------------------------------------|
D|-------------------------------------------------|
A|-7----7------7-7----------7----7------7-7--------|
E|-------------------------------------------------|

2:05
G||--------------------------------------------------------------------------------||
D||o------------------------------------------------------------------------------o||
A||o---------------------7--7-------7--7------------------------------------------o||
E||--4--4-----4--4--------------------------7--7------7--7-------2--2-------2--2---|| x2

G||------------------------------------------------------------------------------------||
D||o----------------------------------------------------------------------------------o||
A||o---------------4--6--7--7-------7--7--6--4----------------------------------------o||
E||--4--4-----4-----------------------------------7--7------7--7-------2--2-------2--2-|| x2

2:43
G|---------------------------------------------------------------------------|
D|---------------------------------------------------------------------------|
A|---------------------------------------------------------------------------|
E|--9-9-----9-9-----11-11-----11-11-----9-9-----9-9------7-7-----7-7---------|

2:53 (staccato)
G|---------------------------------------------------------------------------------|
D|---------------------------------------------------------------------------------|
A|-------------------9-11-11-11-11-11-11-11-9--------------------------------------|
E|--7-7-7-7-7-7-7-7----------------------------7-7-7-7-7-7-7-7---4-4-4-4-4-4-4-4---|

3:02
G|------------------------------------------------------------------------------------|
D|------------------------------------------------------------------------------------|
A|------------------------------------------------------------------------------------|
E|-9-9-9-9--9-9-9-9---11-11-11-11--11-11-11-11---9-9-9-9--9-9-9-9---7-7-7-7--7-7-7-7--|

3:12
G|------------------------------------------------------------------------------------|
D|------------------------------------------------------------------------------------|
A|----------------4--6--7--7-------7--7--6--4-----------------------------------------|
E|--4--4-----4-----------------------------------7--7------7--7-------2--2-------2--2-| 

3:21
G|-------------------------------------------------------------------------------------|
D|-------------------------------------------------------------------------------------|
A|-----------------4--6--7--7-------7--7--6--4-----------------------------------------|
E|---4--4-----4-----------------------------------7--7------7--7-------2--2-------2--2-|

end
G|--------|
D|--------|
A|--------|
E|-7-7----|

rate/comment/whatever
enjoy!
===============================================================================
comments
We did not receive enough feedback on this tab! Please rate:
print report bad tab
1 2 3 4 5
I want to post or [tab]
guest
You may want to rate the tab now too:
select rating
Please do not post tabs as comments. Select "correction" instead!